1.5 кг отличного пюре — Океан

F5  C5  D5  A#5 G5
e|---|---|---|---|---|
B|---|---|---|---|---|
G|---|-5—|-7-|---|---|
D|-3—|-5—|-7—|-8-|-5-|
A|-3—|-3-|-5—|-8—|-5-|
E|-1-|---|---|-6—|-3-|


F5 C5 D5 A#5
Вот предо мной океан Он безбрежен.
F5 C5 D5 A#5
Стал думать я о тебе как-то реже.
F5 C5 D5 A#5
Да, может быть ты права, все напрасно.
F5 C5 D5 A#5 F5 G5
Но завтра день для меня будет очень ясным.

F5 G5
Зная себя хорошо и довольно давно,
A#5
Понять не могу себя все равно,
F5
Сколько бы я не пытался, но тщетно.

F5 G5 A#5
Как случилось так, что оборвалось
F5 G5 A#5
Что-то там внутри?
F5 G5 A#5
Как бывает так, что все сгорает
F5 G5 A#5
За один лишь миг?
F5 G5 A#5
За короткий миг.

F5 C5 D5 A#5
Кто ты сейчас для меня в самом деле?
F5 C5 D5 F5 G5
Я разглядел, извини, повнимательнее
F5 G5
Ято океан без конца и без края
A#5
В твоих бесконечно больших глазах голубых
F5
Просто обычная серая лужа.

F5 G5 A#5
Как случилось так, что оборвалось
F5 G5 A#5
Что-то там внутри?
F5 G5 A#5
Как бывает так, что все сгорает
F5 G5 A#5
За один лишь миг?
F5 G5
За короткий


Guitar 1
Solo:
|--------------------------------------------------------------------|
|------------------------------------------------------3---3---3---3-|
|----3---3---3---3---3---3---3---3---3---3---3---3---1---1---1---1---|
|--1---1---1---1---1---1---1---1---1---1---1---1---------------------|
|--------------------------------------------------------------------|
|--------------------------------------------------------------------|

Guitar 2
8x 8x 8x 8x
|--------------|
|--------------|
|--------------|
|--3—-5—-3—-8--|
|--3—-5—-3--8--|
|--1—-3—-1—-6—-|

Guitar 1
|---------------------------------------------------------------------|
|----------------------3---3---3---3--------------------3---3---3---3-|
|----3---3---3---3---1---1---1---1-----3---3---3---3--1---1---1---1---|
|--1---1---1---1---------------------1---1---1---1--------------------|
|---------------------------------------------------------------------|
|---------------------------------------------------------------------|

Guitar 2
8x 8x 8x 8x
|--------------|
|--------------|
|--------------|
|--3—-8—-3—-8--|
|--3—-8—-3--8--|
|--1—-6—-1—-6—-|

Guitar 2
8x 8x 8x 8x
|--------------|
|--------------|
|--------------|
|--8—-3—-5—-3--|
|--8—-3--5—-3--|
|--6—-1—-3—-1--|