28 Панфиловцев — За спиной - Родина

Вступление: H5 G5  E5

H5 G5
Круты берега реки,
C5 E5
Чистое небо высоко.
Здесь пролегли пути
Бойцов Армии Света.

Густые зеленые леса,
Яркое жаркое солнце.
Здесь пронеслись песни
Хороводов нашего народа.

G5 E5
Рванув рубаху на груди,
A5 G5
Бейся до последнего!
H5 G5
Отцов своих не посрами,
A5 H5
За спиной - Родина!

E----------------------|
H|--3-5-3------------|--3-5-3---------5-5-3----|
G|-4-----4-2-4-4-2-4-|-4-----4-2-4-4-2-----4-4-|
D----------------------|
A----------------------|
E----------------------|

|-----5-5-7---(7-7-12-8-7--7-7-12-8-7--7-7)-12-10-12-17~-19~~-|
|-7777-7------------------------------------------------------|
--------------------------------------------------|
--------------------------------------------------|
--------------------------------------------------|
--------------------------------------------------|

* 7777 - много и быстро (около 8 раз)
() - играть как можно быстрее
~ - протянуть
~~ - протянуть как можно дольше

Душистая степная трава,
Родная землица наша.
Здесь громыхали Победы
Бойцов Армии Света.

Чистые холодные ручьи,
Птиц теплые песни
Здесь начались зарницы
Хороводов ветров Победы.


Рванув рубаху на груди,
Бейся до последнего!
Отцов своих не посрами,
За спиной - Родина!

Конец такой: H5 C5 H5 G5 E5 H5

Аккорды:
H5 C5 G5 E5 A5
E---------------|
H---------------|
G|--4---5-------------------|
D|--4---5---5---2---7-------|
A|--2---3---5---2---7-------|
E|----------3---0---5-------|