3 Doors Down — When I`m Gone

Intro: [clean]

Am C G
e]-------------------------------------3---
B]--------0h2-----2p0---0h1------0h1---3---
G]------2-----2-------2----------------0---
D]----2---------2--------------2-------0---
A]--0------------------------3---------2---
E]-------------------------------------3---
Am C G
e]----------------------------------3---
B]--------0h2-----3-1-0h1-----0h1---3---
G]------2-----2---------------------0---
D]----2---------2-----------2-------0---
A]--0---------------------3---------2---
E]----------------------------------3---

Guitar 2
Intro

e:------------------------------------
B:------------------------------------
G:------------------------------------
D:---7h9-12-9-9~~--10p9-9-12-10~-9~-7~
A:------------------------------------
E:------------------------------------

Verse:
Time :13

Am C G
e]--0~------------0---3---
B]--1~------------1---3---
G]--2~------------0---0---
D]--2~------------2---0---
A]--0~---0--2--3--3---2---
E]--------------------3---

Pre Chorus:
Time :39

Am Am
e]-----------------------------
B]--------0h1--3--------0h1----
G]------2-------------2-----2-- play twice
D]----2-------------2----------
A]--0-------------0------------
E]-----------------------------

Chorus: distort
Time :51

A B C B D G B C B
e]------------------------------------------------------
B]------------------------------------------------------
G]----------------4--5-/-4---7-x-x---------4--5-/-4--- play 4 times
D]---7-x-x-7-x-x--4--5-/-4---7-x-x--5-x-x--4--5-/-4---
A]---7-x-x-7-x-x--2--3-/-2---5-x-x--5-x-x--2--3-/-2---
E]---5-x-x-5-x-x---------------------3-x-x--------------

Time 1:18

A D G
e]----------------------------
B]----------------------------
G]---------------------------- play twice
D]---7-~-7--10-x-10--5-~-5---
A]---7-~-7--10-x-10--5-~-5---
E]---5-~-5--8--x-8---3-~-3---

Guitar 2
Post Chorus

E:--------------------------------------------------------
B:--------------------------------------------------------
G:---------------5~~-----------------------5~~------------
D:---7~~--7-5-7-----5~~------7~~--7-5-7-----7-5---5~~7~--
A:-------------------------------------------------7------
E:--------------------------------------------------------

Verse 2: Time 1:32

Chorus: Time 1:56

Bridge: distort
Time 2:23

A C D Eb D
e]-----------------------------------------------
B]-----------------------------------------------
G]-----------------------------------------------
D]---7-x-x-7--10-x-x-10--12-x-x-12-/-13--12---
A]---7-x-x-7--10-x-x-10--12-x-x-12-/-13--12---
E]---5-x-x-5--8--x-x-8---10-x-x-10-/-11--10---

A C D G F# E
e]--------------------------------[---PALM--]---
B]--------------------------------[---MUTE--]---
G]--------------------------------[---------]---
D]---7-x-x-7--10-x-x-10--12-x-x-[-5--4--2-]---
A]---7-x-x-7--10-x-x-10--12-x-x-[-5--4--2-]---
E]---5-x-x-5--8--x-x-8---10-x-x-[-3--2--0-]---

Pre-Chorus
Time 2:36

Solo: repeat chorus throughout
Time 2:49

solo:

E:--------------------------------------------------------
B:--------------------------------------------------------
G:------------------5-------------------------------------
D:---7-7-7-7-5-7~~~---7-5--------------------------------
A:------------------------7-5h7-5-7-5---------------------
E:------------------------------------8-5~~---------------

E:--------------------------------------------------------
B:--------------------------------------------------------
G:--------------------------------------------------------
D:----------------------7-9b10-7~~-9b~~~r-7~~-9b~~~r-7~~--
A:------------------5-7-----------------------------------
E:-5-5-8-5~-5-3-5-8---------------------------------------

Repeatedly Pluck Strings
with SLIGHT bend
E:-----------[-----------------]--------------------------
B:-----------[---------21-fade-]--------------------------
G:---7b-7-9--[-9-12-16--------]--------------------------
D:-----------[-----------------]--------------------------
A:-----------[-----------------]--------------------------
E:-----------[-----------------]--------------------------

Chorus

Outro:

A C G
e]----------------------------
B]----------------------------
G]---------------------------- play 3 times
D]---7-~-7--10-x-10--5-~-5---
A]---7-~-7--10-x-10--5-~-5---
E]---5-~-5--8--x-8---3-~-3---

A C G
e]-------------------------------------
B]-------------------------------------
G]-------------------------------------
D]---7-~-7--10-x-10--5-~-5--7-~-~-~---
A]---7-~-7--10-x-10--5-~-5--7-~-~-~---
E]---5-~-5--8--x-8---3-~-3--5-~-~-~---