30 Seconds To Mars — Was It A Dream (Acoustic)

D|-----------------------------------|
A|-----------------------------------|
F|--------0--------------------------|
C|-----4---4-4--------7-----7--------|
G|--2-2--2--2-----5-5---5-5----------|
D|-----------------------------------|

D|-----------------------------------|
A|-----------------------------------|
F|--------0--------------------------|
C|-----4---4-4--------7-----9--------|
G|--2-2--2--2-----5-5---7-7----------|
D|-----------------------------------|

D|-------------------------------------------------------------|
A|-------------------------------------------------------------|
F|--------0----------------------------------------------------|
C|-----4---4-4--------7-----7------7----7-------11-------11/12-|
G|--2-2--2--2-----5-5---5-5---5-0-0--0-0--7/9-9----9-9-9-------|
D|-------------------------------------------------------------|

Chorus

Was it a Dream? Was it a Dream?
D|-------------------------------------|
A|-------------------------------------|
F|--7-7-7-7-7-7--------9-9-9-9-9-9-----|
C|--7-7-7-7-7-7--------9-9-9-9-9-9-----|
G|--5-5-5-5-5-5--------7-7-7-7-7-7-----|
D|-------------------------------------|

Is this the only evi- dence that proves it
D|-------------------------------------------------|
A|-------------------------------------------------|
F|--4-4-4-4-4-4------------11-11-11-11-11-11-------|
C|--4-4-4-4-4-4------------11-11-11-11-11-11-------|
G|--2-2-2-2-2-2------------9--9--9--9--9--9--------|
D|-------------------------------------------------|

A photograph of you and I
D|-------------------------------------|
A|-------------------------------------|
F|--7-7-7-7-7-7--------9-9-9-9-9-9-----|
C|--7-7-7-7-7-7--------9-9-9-9-9-9-----|
G|--5-5-5-5-5-5--------7-7-7-7-7-7-----|
D|-------------------------------------|


Interlude {Play this once}

D|-----------------------------------|
A|-----------------------------------|
F|--------0--------------------------|
C|-----4---4-4--------7-----7--------|
G|--2-2--2--2-----5-5---5-5----------|
D|-----------------------------------|

D|-----------------------------------|
A|-----------------------------------|
F|--------0--------------------------|
C|-----4---4-4--------7-----9--------|
G|--2-2--2--2-----5-5---7-7----------|
D|-----------------------------------|

D|-------------------------------------------------------------|
A|-------------------------------------------------------------|
F|--------0----------------------------------------------------|
C|-----4---4-4--------7-----7------7----7-------11-------11/12-|
G|--2-2--2--2-----5-5---5-5---5-0-0--0-0--7/9-9----9-9-9-------|
D|-------------------------------------------------------------|

Verse 2 {Play this twice}

D|-----------------------------------|
A|-----------------------------------|
F|--------0--------------------------|
C|-----4---4-4--------7-----7--------|
G|--2-2--2--2-----5-5---5-5----------|
D|-----------------------------------|

D|-----------------------------------|
A|-----------------------------------|
F|--------0--------------------------|
C|-----4---4-4--------7-----9--------|
G|--2-2--2--2-----5-5---7-7----------|
D|-----------------------------------|

D|-------------------------------------------------------------|
A|-------------------------------------------------------------|
F|--------0----------------------------------------------------|
C|-----4---4-4--------7-----7------7----7-------11-------11/12-|
G|--2-2--2--2-----5-5---5-5---5-0-0--0-0--7/9-9----9-9-9-------|
D|-------------------------------------------------------------|

At the end of the 2nd Verse start strumming

D|-----------------------------------|
A|-----------------------------------|
F|--11-11-11-11-11-11-11-11----------|
C|--11-11-11-11-11-11-11-11----------|
G|--9--9--9--9--9--9--9--9-----------|
D|-----------------------------------|

Chorus 2

Was it a Dream? Was it a Dream?
D|-------------------------------------|
A|-------------------------------------|
F|--7-7-7-7-7-7--------9-9-9-9-9-9-----|
C|--7-7-7-7-7-7--------9-9-9-9-9-9-----|
G|--5-5-5-5-5-5--------7-7-7-7-7-7-----|
D|-------------------------------------|

Is this the only evi- dence that proves it
D|-------------------------------------------------|
A|-------------------------------------------------|
F|--4-4-4-4-4-4------------11-11-11-11-11-11-------|
C|--4-4-4-4-4-4------------11-11-11-11-11-11-------|
G|--2-2-2-2-2-2------------9--9--9--9--9--9--------|
D|-------------------------------------------------|

A photograph of you and I
D|-------------------------------------|
A|-------------------------------------|
F|--7-7-7-7-7-7--------9-9-9-9-9-9-----|
C|--7-7-7-7-7-7--------9-9-9-9-9-9-----|
G|--5-5-5-5-5-5--------7-7-7-7-7-7-----|
D|-------------------------------------|


Middle 8 / Interlude {Play the first bit around 13 or 14 times then the other bit just once}

D|----------------|
A|----------------|
F|--------0-------|
C|-----4---4-4----|
G|--2-2--2--2-----|
D|----------------|

D|-----------------------------------|
A|-----------------------------------|
F|--11-11-11-11-11-11-11-11----------|
C|--11-11-11-11-11-11-11-11----------|
G|--9--9--9--9--9--9--9--9-----------|
D|-----------------------------------|

Final Chorus

Was it a Dream? Was it a Dream?
D|-------------------------------------|
A|-------------------------------------|
F|--7-7-7-7-7-7--------9-9-9-9-9-9-----|
C|--7-7-7-7-7-7--------9-9-9-9-9-9-----|
G|--5-5-5-5-5-5--------7-7-7-7-7-7-----|
D|-------------------------------------|

Is this the only evi- dence that proves it
D|-------------------------------------------------|
A|-------------------------------------------------|
F|--4-4-4-4-4-4------------11-11-11-11-11-11-------|
C|--4-4-4-4-4-4------------11-11-11-11-11-11-------|
G|--2-2-2-2-2-2------------9--9--9--9--9--9--------|
D|-------------------------------------------------|

A photograph of you and I
D|-------------------------------------|
A|-------------------------------------|
F|--7-7-7-7-7-7--------9-9-9-9-9-9-----|
C|--7-7-7-7-7-7--------9-9-9-9-9-9-----|
G|--5-5-5-5-5-5--------7-7-7-7-7-7-----|
D|-------------------------------------|

D|----------------|
A|----------------|
F|--4-4-4-4-4-4---|
C|--4-4-4-4-4-4---|
G|--2-2-2-2-2-2---|
D|----------------|


Was it a Dream? Was it a Dream?
D|-------------------------------------|
A|-------------------------------------|
F|--7-7-7-7-7-7--------9-9-9-9-9-9-----|
C|--7-7-7-7-7-7--------9-9-9-9-9-9-----|
G|--5-5-5-5-5-5--------7-7-7-7-7-7-----|
D|-------------------------------------|

Is this the only evi- dence that proves it
D|-------------------------------------------------|
A|-------------------------------------------------|
F|--4-4-4-4-4-4------------11-11-11-11-11-11-------|
C|--4-4-4-4-4-4------------11-11-11-11-11-11-------|
G|--2-2-2-2-2-2------------9--9--9--9--9--9--------|
D|-------------------------------------------------|

A photograph of you and I
D|-------------------------------------|
A|-------------------------------------|
F|--7-7-7-7-7-7--------9-9-9-9-9-9-----|
C|--7-7-7-7-7-7--------9-9-9-9-9-9-----|
G|--5-5-5-5-5-5--------7-7-7-7-7-7-----|
D|-------------------------------------|

A photograph of you and I
D|-------------------------------------|
A|-------------------------------------|
F|--7-7-7-7-7-7--------9-9-9-9-9-9-----|
C|--7-7-7-7-7-7--------9-9-9-9-9-9-----|
G|--5-5-5-5-5-5--------7-7-7-7-7-7-----|
D|-------------------------------------|

A photograph of you and I
D|-------------------------------------|
A|-------------------------------------|
F|--7-7-7-7-7-7--------9-9-9-9-9-9-----|
C|--7-7-7-7-7-7--------9-9-9-9-9-9-----|
G|--5-5-5-5-5-5--------7-7-7-7-7-7-----|
D|-------------------------------------|


Optional Ending. Either;


In Love
D|---------|
A|---------|
F|----4----|
C|----4----|
G|----2----|
D|---------|


Or my favourite...

In love...
D|----------------|
A|----------------|
F|--------0-------|
C|-----4---4-4----|
G|--2-2--2--2-----|
D|----------------|

In love...
D|----------------|
A|----------------|
F|--------0-------|
C|-----4---4-4----|
G|--2-2--2--2-----|
D|----------------|

In love...
D|----------------|
A|----------------|
F|--------0-------|
C|-----4---4-4----|
G|--2-2--2--2-----|
D|----------------|

In love...
D|------------------|
A|------------------|
F|--------0-------4-|
C|-----4---4-4----4-|
G|--2-2--2--2-----2-|
D|------------------|