5nizza — Весна

На этой странице Вы можете ознакомиться с 2 версиями подбора аккордов для гитары к песне "Весна" группы (исполнителя) "5nizza".

(Cm)       (D)        (Gm)       (D#)       
1---------------------------------6---|
2----7----------------------------8---|
3|--5-5-5~~-5--7-7-7~~----3-3-3~~-3--7-7-7~~---7--|
4|--5-5-5~~-5--7-7-7~~-5--0-0-0~~-0--5-5-5~~------|
5|--0-0-0~~-0--5-5-5~~-5--1-1-1~~-1--6-6-6~~-6----|
6-------------------------------------|

(Cm) Улица длится, длится, не спится,
(D) Засыпаю - не могу остановиться,
(Gm) Зажигаю, наблюдаю за собой там,
(D#) Со стороны. Раны

(Cm) Не зажили, долго кружили.
(D) Кто? Снова тени ожили.
(Gm) Были, любили, забыли, оставили
(D#) Там.

(Cm) Я не вернусь и снова не будет
(D) Весны.
(Gm) Я поднимусь, я уже не боюсь
(D#) Высоты-ы-ы-ы.

(Cm) Я не хочу чтобы ты,
(D) Я не хочу чтобы я,
(Gm) Часами, словами, весами грузили
(D#) Себя.

(Cm) Ту-ту-ту
(D) Ту-ту-ту
(Gm) Ту-ту-ту
(D#) Ту-ту-ту

(Cm) Ту-ту-ту
(D) Ту-ту-ту

(Cm) Ночь наступает на пятки,
(D) Звуки играют в прятки.
(Gm) Сладкие взятки прячуться их
(D#) Не достать, до них не добраться

(Cm) Можно смеяться, не приземляться.
(D)
(Gm) Трудно понять, легко догадаться.
(D#)

(Cm) Нет не отнять того что бы было,
(D) Опять догонять, время не ждать
(Gm) Можно сгореть, не успеть, не допеть,
(D#) Не догнать, не узнать, потеряться.

(Cm) Можно смеяться, не приземляться.
(D)
(Gm) Трудно понять, легко догадаться.
(D#)

(Cm) Я не вернусь и снова не будет
(D) Весны.
(Gm) Я поднимусь, я уже не боюсь
(D#) Высоты-ы-ы-ы.

(Cm) Я не хочу чтобы ты,
(D) Я не хочу чтобы я,
(Gm) Часами, словами, весами грузили
(D#) Себя.

(Cm) Ту-ту-ту
(D) Ту-ту-ту
(Gm) Ту-ту-ту
(D#) Ту-ту-ту

(Cm) Ту-ту-ту
(D) Ту-ту-ту

(Cm) На ответы у меня есть вопросы,
(D) Папиросы распросы, спроси меня:
(Gm) Где ты? - Нигде, я иду никуда.
(D#) Да, горят провода, это

(Cm) Правда. Сухая вода,
(D) Бесконечная нота. Спроси меня:
(Gm) Кто ты? - Никто, но я здесь
(D#) Навсегда.

(Cm) Я же вернусь и снова наступит
(D) Весна.
(Gm) Когда я проснусь, я узнаю -
(D#) Тебе не до сна-а-а-а

(Cm) Я так хочу чтобы ты,
(D) Я так хочу чтобы я,
(Gm) Дышали одной тишиной и не видели
(D#) Дня.

(Cm) Я так хочу чтобы ты,
(D) Я так хочу чтобы я,
(Gm) Ту-ту-ту
(D#) Ту-ту-ту

(Cm) (D)
1---------------------------|
2---------------------------|
3|---5---5---5--5------7---7---7--7-----|
4|---5---5---5--5------7---7---7--7-----|
5|-0-------0---------5-------5----------|
6|-----0-------0---------5-------5------|

(Gm) (D#)
1---------------------------|
2---------------------------|
3|---3---3---3--3------8---8---8--8-----|
4|---5---5---5--5------8---8---8--8-----|
5|-----3-------3-----6-------6----------|
6|-3-------3-------------6-------6------|


(Cm)
(D) Дышали одной тишиной и не видели
(Gm) Дня-а-а.
(D#) а а а

(Cm) Я так хочу чтобы ты,
(D) Я так хочу чтобы я,
(Gm) Дышали одной тишиной и не видели
(D#) Дня-а-а-а-а-а.

(С#) (D)
1---------------------------|
2---------------------------|
3|-7---6---6---6--6-7---8---8---8--8----|
4|-7---6---6---6--6-7---8---8---8--8----|
5|---4-------4--------6---6-------------|
6|-------4-------4------------6---6-----|

(C#) А-а-
(D) а. Я же вернусь и снова наступит

(C#) Весна. А-а-
(D) а.

(C#) Я же вернусь и снова наступит
(D) Весна-а. А-а-

(C#) а. А-а-
(D) а.

(C#) Я же вернусь и снова наступит
(D) Весна-а.

(C#) А-а-
(D) а.
(I)       (II)        (III)       (IV)      

1|--*-*-*------2-2-2---------------------------6--|
2|--1-1-1------1-1-1------3-3-3------8-8-8-----8--|
3|--0-0-0~~----2-2-2~~----3-3-3~~----7-7-7~~---7--|
4|--1-1-1~~----0-0-0~~----3-3-3~~----8-8-8~~---8--|
5|--0-0-0~~----0-0-0~~----5-5-5~~----6-6-6~~---6--|
6|--*-*-*------*-*-*------3-3-3------*-*-*--------|
В конце (т.е. в конце IV аккорда)обратите внимание на удар по 6 ладу на первой струне
указательным пальцем левой руки :)!!!

(I) Улица длится, длится, не спится,
(II) Засыпаю - не могу остановиться,
(III) Зажигаю, наблюдаю за собой там,
(IV) Со стороны. Раны

(I) Не зажили, долго кружили.
(II) Кто? Снова тени ожили.
(III) Были, любили, забыли, оставили
(IV) Там.

Я не вернусь и снова не будет
Весны.
Я поднимусь, я уже не боюсь
Высоты-ы-ы-ы.

Я не хочу чтобы ты,
Я не хочу чтобы я,
Часами, словами, весами грузили
Себя.

Ту-ту-ту
Ту-ту-ту
Ту-ту-ту
Ту-ту-ту

Ту-ту-ту
Ту-ту-ту

Ночь наступает на пятки,
Звуки играют в прятки.
Сладкие взятки прячуться их
Не достать, до них не добраться

Можно смеяться, не приземляться.

Трудно понять, легко догадаться.


Нет не отнять того что бы было,
Опять догонять, время не ждать
Можно сгореть, не успеть, не допеть,
Не догнать, не узнать, потеряться.

Можно смеяться, не приземляться.

Трудно понять, легко догадаться.


Я не вернусь и снова не будет
Весны.
Я поднимусь, я уже не боюсь
Высоты-ы-ы-ы.

Я не хочу чтобы ты,
Я не хочу чтобы я,
Часами, словами, весами грузили
Себя.

Ту-ту-ту
Ту-ту-ту
Ту-ту-ту
Ту-ту-ту

Ту-ту-ту
Ту-ту-ту

На ответы у меня есть вопросы,
Папиросы распросы, спроси меня:
Где ты? - Нигде, я иду никуда.
Да, горят провода, это

Правда. Сухая вода,
Бесконечная нота. Спроси меня:
Кто ты? - Никто, но я здесь
Навсегда.

Я же вернусь и снова наступит
Весна.
Когда я проснусь, я узнаю -
Тебе не до сна-а-а-а

Я так хочу чтобы ты,
Я так хочу чтобы я,
Дышали одной тишиной и не видели
Дня.

Я так хочу чтобы ты,
Я так хочу чтобы я,
Ту-ту-ту
Ту-ту-ту

Дышали одной тишиной и не видели
Дня-а-а.
а а а

Я так хочу чтобы ты,
Я так хочу чтобы я,
Дышали одной тишиной и не видели
Дня-(C#)а-а-а-а-а.

(D#) А-а-
(C#) Я же вернусь и снова наступит

(C#) Весна. А-а-
(D#) а.

(C#) Я же вернусь и снова наступит
(D#) Весна-а. А-а-

(C#) а. А-а-
(D#) а.

(C#) Я же вернусь и снова наступит
(D#) Весна-а.

(C#) А-а-
(D#) а.