5nizza — Стрела

На этой странице Вы можете ознакомиться с 2 версиями подбора аккордов для гитары к песне "Стрела" группы (исполнителя) "5nizza".

Стрела - 5nizza

Riff1 (r1)
e|----------1----------------------------------------
b|--------3-------3----------------------------------
g|------2-------2---2--------------------------------
d|-0-------------------------------------------------
a------------3----3-3-3------------------
E----------------------------------------
Riff2 (r2)
e|----------1----------------------------------------
b|--------3-------3----------------------------------
g|------0-----------0--------------------------------
d----------------------------------------
a|-2---------------------1----1-1-0------------------
E----------------------------------------
R1 R2
Моя стрела опоздала, подарил тебе дождь, прости...
R1
Мне бы подрасти боюсь сойти на ум,
Да я снова на краю время отдаЮ
R2
Ю не хватает пустотЫ ты.
R1
Все что исчезло вдруг вокруг
R2
Только звук упавших век, дверь и стук,
Снег, разбе-ег.
R1 R2
Лед уйдет, я войду из пустоты, это ты, просто ты,
ТЫ БЫЛА ВСЕГДАААА!!!
---------------------------------------------------------
==Припев==
R1
Та-тА-та-та та-тА-та-та-та
R2
Та-тА-та та-таааааа
. . . . .
//в текстовой записи бред, лучше сами припев послушайте!!!
---------------------------------------------------------
R1
Моя волна ожидания полна моя вина,
R2
Глубина... Мокрая стена перЕдо мною.
R1
Ночь но она не сможет мне помочь,
R2
Слова... Кругом голова уходит прочь.
R1
Все то о чем не нужно знать ни тебе не мне .
R2 R1
Вне нас миллионы глаз, миллионы фраз...
Пусть нам осталась грусть но она одна .
R2
БЕ-Е-Е-Е-ЗДНАА-А!!!
==Припев==
Вступление (2 раза):

Dm Dm7/C
e|-----------1--------1-----|--------------------|
H|--------3-----------------|--------------------|
G|-----2-----------2-----2--|--------------------|
D|--0-----------------------|--------------------|
A|--------------------------|--3-----3-----3-3---|
E|--------------------------|--------------------|

G7/H G6/H B6-5 A7
|-----------1--------------|--------------------|
|--------3--------3-----3--|--------------------|
|-----0--------------0-----|--------------------|
|--------------------------|--------------------|
|--2-----------------------|--1-----1-----1-0---|
|--------------------------|--------------------|

Dm Dm7/C
Моя стрела опоздала, подарил тебе дождь,
G7/H G6/H B6-5 A7
Прости... Мне бы подрасти, боюсь сойти на
Ум. Да, я снова на краю, время отдаю
You... Не хватает пустоты, ты.
Все, что исчезло вдруг вокруг, только звук упавших
Век, дверь и стук, снег, разбег.
Лед уйдет, я войду из пустоты,
Это ты, просто ты, ты была всегда!

Проигрыш = вступление

Моя волна ожидания полна, моя вина,
Глубина... Мокрая стена передо мною.
Ночь, но она не сможет мне помочь,
Слова... Кругом голова уходит прочь.
То, о чем не нужно знать ни тебе не мне,
Вне нас миллионы глаз, миллионы фраз...
Пусть нам осталась грусть, но она одна, \
Бездна! / здесь играется простой перебор

Проигрыш

Моя стрела...