69 Eyes — The Chair

припев:
1)---------------------| 1)----------------------|
2)---4----4----5-4-454-| 2)----------------------|
3)-----4----4---4------|x3 3)---6-4---6-4---4--454-|
4)-6----6----6---------| 4)-6-----6-----6--6-----|
5)---------------------| 5)----------------------|
6)---------------------| 6)----------------------|

1куплет:
G# G# F# E

G# E F# E
1)-------------------------|
2)-------------------------|
3)-8-8-8-8-9--8--8-9-8-6-6-|
4)-8-8-8-8-9--8--8-9-8-6-6-|
5)-6-6-6-6-7--6--6-7-6-4-4-|
6)-------------------------|

припев:
1)---------------------| 1)----------------------|
2)---4----4----5-4-454-| 2)----------------------|
3)-----4----4---4------|x3 3)---6-4---6-4---4--454-|
4)-6----6----6---------| 4)-6-----6-----6--6-----|
5)---------------------| 5)----------------------|
6)---------------------| 6)----------------------|

1куплет:
G# G# F# E

G# E F# E
1)-------------------------|
2)-------------------------|
3)-8-8-8-8-9--8--8-9-8-6-6-|
4)-8-8-8-8-9--8--8-9-8-6-6-|
5)-6-6-6-6-7--6--6-7-6-4-4-|
6)-------------------------|

припев:
1)---------------------| 1)----------------------|
2)---4----4----5-4-454-| 2)----------------------|
3)-----4----4---4------|x3 3)---6-4---6-4---4--454-|
4)-6----6----6---------| 4)-6-----6-----6--6-----|
5)---------------------| 5)----------------------|
6)---------------------| 6)----------------------|

1)---------------------| 1)----------------------|
2)---4----4----5-4-454-| 2)----------------------|
3)-----4----4---4------|x3 3)---6-4---6-4---4--454-|
4)-6----6----6---------| 4)-6-----6-----6--6-----|
5)---------------------| 5)----------------------|
6)---------------------| 6)----------------------|
SOLO: я к сажелению его не знаю,кто сможет подабрать прашу написать мне.

1)---------------------| 1)----------------------|
2)---4----4----5-4-454-| 2)----------------------|
3)-----4----4---4------|x3 3)---6-4---6-4---4--454-|
4)-6----6----6---------| 4)-6-----6-----6--6-----|
5)---------------------| 5)----------------------|
6)---------------------| 6)----------------------|

1)---------------------| 1)----------------------|
2)---4----4----5-4-454-| 2)----------------------|
3)-----4----4---4------|x3 3)---6-4---6-4---4--454-|
4)-6----6----6---------| 4)-6-----6-----6--6-----|
5)---------------------| 5)----------------------|
6)---------------------| 6)----------------------|

1)---------------------| 1)----------------------|
2)---4----4----5-4-454-| 2)----------------------|
3)-----4----4---4------|x3 3)---6-4---6-4---4--454-|
4)-6----6----6---------| 4)-6-----6-----6--6-----|
5)---------------------| 5)----------------------|
6)---------------------| 6)----------------------|