— Убегаем, догоняют (Прости, мама)

вступление :
E----------------------------
B----------------------------
G|---5---5—7—8—5-----5---5-—7—8—5--------
D|-5---5---------------5---5-------------
A----------------------------
E----------------------------

-----------------------------------------
-----------------------------------------
----5---5—7—8—5-----5---5—--7—8—5--------
-6----6-----------6---6------------------
-----------------------------------------
-----------------------------------------

-----------------------------------------
-----------6--4--3--------------6--4--3--
---3---3—-—-—---------3---3—--—-—--------
-3---3--------------3---3----------------
-----------------------------------------
-----------------------------------------

-----------------------------------------
-----------------------------------------
---5---5—7—8—5-----5---5—--7—8—5------5--
-5---5-----------5---5-------------5-----
-----------------------------------------
-----------------------------------------

А вот что играется в куплете:
E----------------------------
B----------------------------
G|---5---------5---5—7—8—5-------5-------
D|-5---------5---5-------------6---------
A----------------------------
E----------------------------

-----------------------------------------
---------------------------------6--4--3-
---5---5—7—8—5-----3------3---3—--—------
-6---6-----------3------3---3------------
-----------------------------------------
-----------------------------------------

-----------------------------------------
-----------------------------------------
---5---5—7—8—5------5---5—7—8—5----------
-5---5------------5---5------------------
-----------------------------------------
-----------------------------------------

В аккордах:
Cm
Пиная кирпич иду, не чувствуя боль, и вдруг
Cmadd13-
Друг на пути, мы из дома ушли
Bb
За свободой из книг, за героями, в роль и скин

Cm
Дым на небе лежит, значит мы будем жить
Cmadd13-
Зимой не замерзнем, от костра убежим,
Bb
За любовью с витрин, за дорогой в полях без мин

Предприпев:
Cmadd13- Bb Cm
Этот город рухнет на нас стеной и мы прорвемся
Cmadd13- Bb Cm
Это море вынесет нас в аллой и мы вернемся

Припев:
Cmadd13- Bb Cm
Убегаем, догоняют, прости , мама x2


В забытые времена бродягой была земля
С неба как дом родной, а звезды как сестры в нем
Смотрели на нас с картин, в глазах их читался сорт вин

Черта черно-белая, душа очень смелая
Жизнь беспризорная, суть не зазорная
Воля свободная, улови в этом финт

Предприпев.
Припев.
Проигрыш.
Припев.