A D D — Not My Fault

На этой странице Вы можете ознакомиться с 2 версиями подбора аккордов для гитары к песне "Not My Fault" группы (исполнителя) "A D D".

NOT MY FAULT - A.D.D.

intro
G:-----------------------------------------------------------------
D:----------------------------------------------------------------
A:-----2-------------------------------------------------------
E:----------------------------------------------------------------

chorus play 2 times
G:--------------------------------------------------------
D:--------------------------------------------------------
A:22222222-------------------------------------------------
E:----------------22222222---44444444---22222222----------

G:---------------------------------------------------------
D:---------------------------------------------------------
A:---55555555---7777777-----------------------------------
E:------------------------------------------------------------

play 2
G:---------------------------------------------------------
D:----------------------------------------------------------
A::22222222---------------------------------------------------
E:----------------22222222---44444444---22222222----------------


verse play 8 times my mind is spinning round and round............
G:------------------------------------------------------------------
D:------------------------------------------------------------------
A:2222222-----------------------------------------------------------
E:--------------2222222----4444444----2222222-----------------------
NOT MY FAULT - A.D.D.

By:Graham Wolfe

Chords Used
B5 F#5 G#5 Eii F#ii E5
e|---------------------------------------------------------------------------|
B|---------------------------------------------------------------------------|
G|4-------------------7------11----------------------------------------------|
D|4-----4------6------7------11----2-----------------------------------------|
A|2-----4------6------9------9-----2-----------------------------------------|
E|------2------4-------------------0-----------------------------------------|

Intro.
e|---------------------------------------------------------------------------|
B|---------------------------------------------------------------------------|
G|4--------------------------------------------------------------------------|
D|4--4--6--4-----------------------------------------------------------------|
A|2--4--6--4-----------------------------------------------------------------|
E|---2--4--2-----------------------------------------------------------------|

Pre-Verse
e|---------------------------------------------------------------------------|
B|---------------------------------------------------------------------------|
G|44444444----------------------------44444444-------------------------------|
D|44444444-44444444-66666666-44444444-44444444-44444444-66666666-44444444----|
A|22222222-44444444-66666666-44444444-22222222-44444444-66666666-44444444----|
E|---------22222222-44444444-22222222----------22222222-44444444-22222222----|

Cool Part
e|----------------------------------------------------------------------------------|
B|----------------------------------------------------------------------------------|
G|99999999-11-11-11-11-11-----------------------------------------------------------|
D|99999999-11-11-11-11-11--back to pre-verse-for-same-amount-of-time-then-pic-scrape|
A|77777777--9--9--9--9--9-----------------------------------------------------------|
E|----------------------------------------------------------------------------------|

Verse(palm-muted) my head is spinning...
e|---------------------------------------------------------------------------|
B|---------------------------------------------------------------------------|
G|44444444-------------------------------------------------------------------|
D|44444444-44444444-66666666-22222222----play-this-part-seven-times----------|
A|22222222-44444444-66666666-22222222----------------------------------------|
E|---------22222222-44444444-00000000----------------------------------------|

Song Order
Intro. 4x
Pre-Verse
Cool Part
Pre-Verse
Verse
Chorus(same chords/rythms as pre verse but no cool part)
Pre-Verse
Cool Part
Pre-Verse
Verse
Chorus
Pre-Verse
Ending

e|---------------------------------------------------------------------------|
B|---------------------------------------------------------------------------|
G|----------------------------4----------4-----------------------------------|
D|222222222222-444444444444---4-let-ring-4-cut-off---------------------------|
A|222222222222-444444444444---2----------2-----------------------------------|
E|000000000000-222222222222--------------------------------------------------|