A D D — Still Gonna Play

-------------------------------------------------------------------------------
STILL GONNA PLAY - A.D.D.
-------------------------------------------------------------------------------

By:Graham hurley182_schoolsucks@hotmail.com

Intro.
e|--------------------------------|
B|--------------------------------|
G|--------------------------------|
D|--------------------------------| 4x.
A|-0-0-7-9-0-0-7-9-0-0-5-7-0-5-7--|
E|--------------------------------|

VERSE 1
D5 A5 B5 G5
Come to the show, everyone will be there
D5 A5 B5 G5 A5
Boys and girls but not your mom and dad
D5 A5 B5 G5
Because they'll be affended by what we say there
D5 A5 B5 G5 A5
Everybody tells me that we suck
D5 A5 B5 G5 A5
We say that we don't give a fuck!

BRIDGE
e|--------------------------------------------|
B|--------------------------------------------|
G|77777777-1414141414141414-77777777-22222222-|
D|77777777-1414141414141414-77777777-22222222-|
A|55555555-1212121212121212-55555555-00000000-|
E|--------------------------------------------|

CHORUS
D5 G5 B5 A5
We're still gonna play and have some fun
D5 G5 B5 A5
We'll play our show for you and your friends
D5 G5 B5 A5
You know I don't like work and I don't like school
D5 G5 B5 A5
Our show is more important and I just want to be cool

BRIDGE

VERSE 2
D5 A5 B5 G5
Come to my house there's a party at eleven
D5 A5 B5 G5 A5
Our band will play and if you're there it will feel like heaven
D5 A5 B5 G5
We'll probably get shut down we don't care
D5 A5 B5 G5 A5
We're still gonna play and have some fun!

BRIDGE
CHORUS

SOLO
e|---------------------------------------------------|
B|---------------------------------------------------|
G|---------------------------------------------------| 2x
D|-----7----7------------------------------5555-7777-|
A|--55---55---55----7----7-------9----9----5555-7777-|
E|---------------55---55---55-77---77---77-3333-5555-|

BRIDGE
CHORUS
INTRO

-------------------------------------------------------------------------------