A Global Threat — Elitist Attitudes

Song:Elitist Attidudes
Artist:A Global Threat

This song is a cool song but every where i went i
couldn't find a freaken tab for it soo.... I decided
to tab it myself.Well here it is.

Intro:
E]----------------------------------------------------[ x4
B]----------------------------------------------------[
G]---7-7-7-7--------------------10-10-10-10-----------[
D]---7-7-7-7--7-7-7-7--8-8-8-8--10-10-10-10-----------[
A]---5-5-5-5--7-7-7-7--8-8-8-8--8---8--8--8-----------[
E]------------5-5-5-5--6-6-6-6------------------------[

(2nd guitar):
E]-----------------------------------------------[
B]-----------------------------------------------[
G]-----------------------------------------------[
D]-----------------------------------------------[
A]-----------------------------------------------[
E]-upward-pick-scratch,----Downward-pick-scratch-[

(2nd guitar):
E]----------------------------------------------------[
B]----------------------------------------------------[
G]---7-7-7-7--------------------10-10-10-10-----------[
D]---7-7-7-7--7-7-7-7--8-8-8-8--10-10-10-10-----------[
A]---5-5-5-5--7-7-7-7--8-8-8-8--8---8--8--8-----------[
E]------------5-5-5-5--6-6-6-6------------------------[

The 2nd guitar plays this part while the first guitar is still
playing the intro.

(2nd guitar):
E]-----------------------------------------------------[
B]-----------------------------------------------------[
G]-----------------------------------------------------[
D]-------7-7-5-----------------------------------------[
A]----5--------6-8------5-7s8-7-5----------------------[
E]--------------------6--------------------------------[
This looks wierd but its really easy.

E]----------------------------------------------------[ x4
B]----------------------------------------------------[
G]---7-7-7-7--------------------10-10-10-10-----------[
D]---7-7-7-7--7-7-7-7--8-8-8-8--10-10-10-10-----------[
A]---5-5-5-5--7-7-7-7--8-8-8-8--8---8--8--8-----------[
E]------------5-5-5-5--6-6-6-6------------------------[

E]--------------------------------------------------------------------[
B]--------------------------------------------------------------------[
G]-9-9-9-9-9-9-9-9---10-10-10-10-10-10-10-10--12-12-12-12-12-12-12-12-[
D]-9-9-9-9-9-9-9-9---10-10-10-10-10-10-10-10--12-12-12-12-12-12-12-12-[
A]-7-7-7-7-7-7-7-7---8--8--8--8--8--8--8--8---10-10-10-10-10-10-10-10-[
E]--------------------------------------------------------------------[

E]----------------------------------------------------[ x6
B]----------------------------------------------------[
G]---7-7-7-7--------------------10-10-10-10-----------[
D]---7-7-7-7--7-7-7-7--8-8-8-8--10-10-10-10-----------[
A]---5-5-5-5--7-7-7-7--8-8-8-8--8---8--8--8-----------[
E]------------5-5-5-5--6-6-6-6------------------------[

E]--------------------------------------------------------------------[
B]--------------------------------------------------------------------[
G]-9-9-9-9-9-9-9-9---10-10-10-10-10-10-10-10--12-12-12-12-12-12-12-12-[
D]-9-9-9-9-9-9-9-9---10-10-10-10-10-10-10-10--12-12-12-12-12-12-12-12-[
A]-7-7-7-7-7-7-7-7---8--8--8--8--8--8--8--8---10-10-10-10-10-10-10-10-[
E]--------------------------------------------------------------------[

E]------------------------------------------------------------------[
B]------------------------------------------------------------------[
G]-3-3-3-3-3-3-------5-5-5-5-5-5-5-5-x3--3-3-3-3-3-3-3-3------------[
D]-3-3-3-3-3-3--3-3--5-5-5-5-5-5-5-5-----3-3-3-3-3-3-3-3--7-7-7-7-7-[
A]-1-1-1-1-1-1--3-3--3-3-3-3-3-3-3-3-----1-1-1-1-1-1-1-1--7-7-7-7-7-[
E]--------------1-1---------------------------------------5-5-5-5-5-[

(2nd guitar):
E]-----------------------------------------------------[
B]-----------------------------------------------------[
G]-----------------------------------------------------[
D]-------7-7-5---------------------------12------------[
A]----5--------6-8------5-7s8-7-5-x2-------------------[
E]--------------------6--------------------------------[


E]----------------------------------------------------[ x4
B]----------------------------------------------------[
G]---7-7-7-7--------------------10-10-10-10-----------[
D]---7-7-7-7--7-7-7-7--8-8-8-8--10-10-10-10-----------[
A]---5-5-5-5--7-7-7-7--8-8-8-8--8---8--8--8-----------[
E]------------5-5-5-5--6-6-6-6------------------------[

E]--------------------------------------------------------------------[
B]--------------------------------------------------------------------[
G]-9-9-9-9-9-9-9-9---10-10-10-10-10-10-10-10--12-12-12-12-12-12-12-12-[
D]-9-9-9-9-9-9-9-9---10-10-10-10-10-10-10-10--12-12-12-12-12-12-12-12-[
A]-7-7-7-7-7-7-7-7---8--8--8--8--8--8--8--8---10-10-10-10-10-10-10-10-[
E]--------------------------------------------------------------------[


Do Both of these parts twice. x2
E]-------------------------------------------------------------[
B]-------------------------------------------------------------[
G]-3-3-3-3-3-3-------5-5-5-5-5-5-5-5-x3------------------------[
D]-3-3-3-3-3-3--3-3--5-5-5-5-5-5-5-5---------------------------[
A]-1-1-1-1-1-1--3-3--3-3-3-3-3-3-3-3---------------------------[
E]--------------1-1--------------------------------------------[

E]-----------------------------------------------------------[
B]-----------------------------------------------------------[
G]-3-3-3-3-3-3-3-3-------------------------------------------[
D]-3-3-3-3-3-3-3-3----7-7-7-7-7------------------------------[
A]-1-1-1-1-1-1-1-1----7-7-7-7-7------------------------------[
E]--------------------5-5-5-5-5------------------------------[