A Global Threat — Were All Equal In The End

A GLOBAL THREAT-WE'RE ALL EQUAL IN THE END
Tabbed By Ben H (PunkAsPhuck)

. = palm mute

intro
e|----------------------------------
B|----------------------------------
G|----------------------------------
D|-8--8-8-8-8-8-8-8-8-8-8-8-8-8-8---
A|-8--6-8-8-8-8-8-8-8-8-8-8-8-8-8---
E|-6--6-6-6-6-6-6-6-6-6-6-6-6-6-6--- x8
. . . . . . . . . . . . . .

e|-------------------------------
B|-------------------------------
G|-8-----------------------------
D|-8--10--8----------------------
A|-6--10--8----------------------
E|----8---6----------------------

chorus
e|---------------------------------------------------
B|---------------------------------------------------
G|-8-8---------12-12-12-12--13-13-13-13-------10-10--
D|-8-8--10-10--12-12-12-12--13-13-13-13--8-8--10-10--
A|-6-6--10-10--10-10-10-10--11-11-11-11--8-8--8--8---
E|------8--8-----------------------------6-6---------

verse
e|-------------------------------------------------
B|-------------------------------------------------
G|-8-8-8-8--12-12-12-12--10-10-10-10--13-13-13-13--
D|-8-8-8-8--12-12-12-12--10-10-10-10--13-13-13-13--
A|-6-6-6-6--10-10-10-10--8--8--8--8---11-11-11-11--
E|-------------------------------------------------

solo
e|-3--1-----------1--3--4--3--1--3--6--3-----------------------
B|-------4--1--4--------------------------4--3--4--1--------4--
G|----------------------------------------------------1--0-----
D|-------------------------------------------------------------
A|-------------------------------------------------------------
E|-------------------------------------------------------------