A Perfect Circle — 3 Libras

На этой странице Вы можете ознакомиться с 6 версиями подбора аккордов для гитары к песне "3 Libras" группы (исполнителя) "A Perfect Circle".

a perfect circle
3 libras


Intro:
|-------------------------------------------------------------------
|--3-----3--3-----3--3-----3/7-----73-----3--3-----3/10------10---
|----0--------0--------0-------0-------0--------0--------0----------
|-------------------------------------------------------------------
|--3---3----3---3----3---3--/7---7--3---3----3---3--/10---10------
|-------------------------------------------------------------------

|------------------------------------------------------------
|--7-----73-----3--3-----3--3-----3/7-----73-----3--3-----3/
|----0-------0--------0--------0-------0-------0--------0----
|------------------------------------------------------------
|--7---7--3---3----3---3----3---3--/7---7--3---3----3---3--/
|------------------------------------------------------------

|------------------------------------------------0-----|
|--10------107-----7/8-----8--8-----8--8-----8--8-----|
|-----0---------0-------0--------0--------0------0-----|
|------------------------------------------------0-----|
|--10---10---7---7--/8---8----8---8----8---8----8-----|
|------------------------------------------------------|

Verse: end of 4th time
|----------------------------------------|-----------|
|--3-----3--3-----3--5-----5--6-----6----|--7-----7--|
|----0---------0-------0--------0--------|----0------|
|----------------------------------------|-----------|
|--3---3-------------5---5---------------|--7---7----|
|-----------3---3-------------6---6------|-----------|

|-----------------------------------------------------------------
|--3-----3--3-----3--3-----3/10-----107-----7--7-----7--7-----7--
|----0--------0--------0--------0--------0--------0--------0------
|-----------------------------------------------------------------
|--3---3----3---3----3---3--/10---10--7----7---7---7----7---7----
|-----------------------------------------------------------------

|----------------------------------------------------------------
|--7-----73-----3--3-----3--3-----3/10-----107-----7--7-----7--
|----0-------0--------0--------0--------0--------0--------0------
|----------------------------------------------------------------
|--7---7--3---3----3---3----3---3--/10---10--7---7----7---7----
|----------------------------------------------------------------

|-----------0--|
|--8-----8--8--|
|----0------0--|
|-----------0--|
|--8---8----8--|
|--------------|

Chorus:
|----------------------------------------|
|----------------------6-6-6-6-----------|
|----------------------5-5-5-5-----------|
|--5--5-5-5--5--5-5-5--3-3-3-3--6-6-6-6--|
|--5--5-5-5--5--5-5-5--3-3-3-3--6-6-6-6--|
|--3--3-3-3--3--3-3-3-----------4-4-4-4--|

|----------------------------------------------------------------
|--3-----3--3-----3--3-----3/7-----73-----3--3-----3/10------10
|----0--------0--------0-------0-------0--------0--------0-------
|----------------------------------------------------------------
|--3---3----3---3----3---3--/7---7--3---3----3---3--/10---10---
|----------------------------------------------------------------

|------------------------------------------------------------
|--7-----73-----3--3-----3--3-----3/7-----73-----3--3-----3/
|----0-------0--------0--------0-------0-------0--------0----
|------------------------------------------------------------
|--7---7--3---3----3---3----3---3--/7---7--3---3----3---3--/
|------------------------------------------------------------

|--------------------------------------------------|
|--10------107-----7/8-----8--8-----8--8-----8----|
|-----0---------0-------0--------0--------0--------|
|--------------------------------------------------|
|--10---10---7---7--/8---8----8---8----8---8------|
|--------------------------------------------------|

|-----------------------------------------------------------------
|-----------------------------------------------------------------
|--9-9-9-97-7-7-7-7-7-7-7-7-7-7-7-7/9-9-9-9-9-9-9-9-9-9-9-9-9---
|--9-9-9-97-7-7-7-7-7-7-7-7-7-7-7-7/9-9-9-9-9-9-9-9-9-9-9-9-9---
|--7-7-7-75-5-5-5-5-5-5-5-5-5-5-5-5/7-7-7-7-7-7-7-7-7-7-7-7-7---
|-----------------------------------------------------------------

|-------------------------------------------------------|
|-------------------------------------------------------|
|--7-7-7-7-7-7-7-7-7-7-7-7-7/9-9-9-9-9-9-9-9-9-9-9-9-9--|
|--7-7-7-7-7-7-7-7-7-7-7-7-7/9-9-9-9-9-9-9-9-9-9-9-9-9--|
|--5-5-5-5-5-5-5-5-5-5-5-5-5/7-7-7-7-7-7-7-7-7-7-7-7-7--|
|-------------------------------------------------------|

Outro:
|-----------------------------------------|
|-----------------------------------------|
|-9--7--9--7--9--11--16--19--11--9--7--12-|
|-----------------------------------------|
|-7--5--7--5--7---9--14--17---9--7--5--10-|
|-----------------------------------------|
Artist- A Perfect Circle
Song - 3 Libras
Tab- By Jonathan Bissonnette

Tuning- C# F# B E G# C#

Intro

Finger picking on an acoustic

|----------------------------------------|
|-3-----3---3-----3---3-----3---/7-----7-|
|---0---------0---------0----------0-----|
|----------------------------------------|
|-3---3-----3---3-----3---3-----/7---7---|
|----------------------------------------|

|------------------------------------------|
|-3-----3---3-----3---/10-------10/7-----7-|
|---0---------0------------0---------0-----|
|------------------------------------------|
|-3---3-----3---3-----/10----10---/7---7---|
|------------------------------------------|

|----------------------------------------|
|-3-----3---3-----3---3-----3---/7-----7-|
|---0---------0---------0----------0-----|
|----------------------------------------|
|-3---3-----3---3-----3---3-----/7---7---|
|----------------------------------------|

|------------------------------------------|
|-3-----3---3-----3---/10-------10/7-----7-|
|---0---------0------------0---------0-----|
|------------------------------------------|
|-3---3-----3---3-----/10----10---/7---7---|
|------------------------------------------|

|--------------------------------|
|-/8-----8--8-----8--8-----8---8-|
|----0--------0--------0---------|
|--------------------------------|
|-/8---8----8---8----8---8-----8-|
|--------------------------------|

Verse

|--------------------------------------|
|-3-----3---3-----3---/7-----7/8-----8-|
|---0---------0----------0-------0-----|
|--------------------------------------|
|-3---3-----3---3-----/7---7--/8---8---|
|--------------------------------------|

At the end of the forth time
|-------|
|-----7-|
|-------|
|---0---|
|-7-----|
|-------|

Chorus

|---------------------------------------|
|-3-----3---3-----3---3-----3---3-----3-|
|---0---------0---------0----------0----|
|---------------------------------------|
|-3---3-----3---3-----3---3-----3---3---|
|---------------------------------------|

|----------------------------------------|
|-/7-----7---7-----7---7-----7---7-----7-|
|----0---------0---------0---------0-----|
|----------------------------------------|
|-/7---7-----7---7-----7---7-----7---7---|
|----------------------------------------|

At the end of the chorus

|---|
|-8-|
|-0-|
|---|
|-8-|
|---|

Verse 2- same as 1st verse

Chorus 2- same as 1st chorus

Bridge

|-----------------------------------------|
|-----------------------------------------|
|-12-12-12-12-12-12-12-12/8-8-8-8---------|
|-12-12-12-12-12-12-12-12/8-8-8-8-6-6-6-6-|
|-10-10-10-10-10-10-10-10/6-6-6-6-6-6-6-6-|
|---------------------------------4-4-4-4-| x4

Bridge-part two

|----------------------------------------|
|-3-----3---3-----3---3-----3---/7-----7-|
|---0---------0---------0----------0-----|
|----------------------------------------|
|-3---3-----3---3-----3---3-----/7---7---|
|----------------------------------------|

|------------------------------------------|
|-3-----3---3-----3---/10-------10/7-----7-|
|---0---------0------------0---------0-----|
|------------------------------------------|
|-3---3-----3---3-----/10----10---/7---7---|
|------------------------------------------|

|----------------------------------------|
|-3-----3---3-----3---3-----3---/7-----7-|
|---0---------0---------0----------0-----|
|----------------------------------------|
|-3---3-----3---3-----3---3-----/7---7---|
|----------------------------------------|

|------------------------------------------|
|-3-----3---3-----3---/10-------10/7-----7-|
|---0---------0------------0---------0-----|
|------------------------------------------|
|-3---3-----3---3-----/10----10---/7---7---|
|------------------------------------------|

|--------------------------------|
|-/8-----8--8-----8--8-----8---8-|
|----0--------0--------0---------|
|--------------------------------|
|-/8---8----8---8----8---8-----8-|
|--------------------------------|

Outro

|------------------------------|
|------------------------------|
|-9-7-9-7-9-11-16-19-11-9-7-12-|
|-x-x-x-x-x--x--x--x--x-x-x--x-|
|-7-5-7-5-7--9-14-17--9-7-5-10-|
|------------------------------|
tremelo....................

figure out the tremeloing time yourself

End

Email me if you think this is wrong! hoju_10@hotmail.com
Author/Artist: A Perfect Cirlcle
Title: 3 Libra's
Album: Mer De Noms
Transcribed by: Craig Holmes
Email: ccll@connexus.net.au

______________________________________________________________________________

I'm pretty sure this is right but if not please e-mail your
corrections.
-POM-
______________________________________________________________________________

INTRO - clean. accoustic
----------|----------|----------|----------|
-0------0-|-0------0-|-0------0-|----0-----|
----------|----------|----------|-8------8-|
----2-----|----2-----|----2-----|----------|
-0----0---|-0----0---|-0----0---|-7----7---|
----------|----------|----------|----------|

----------|----------|------------|----------|
-0------0-|-0------0-|-----0------|----0-----|
----------|----------|-11------11-|-8------8-|
----2-----|----2-----|------------|----------|
-0----0---|-0----0---|--9----9----|-6----6---|
----------|----------|------------|----------|

----------|----------|----------|----------|
-0------0-|-0------0-|-0------0-|----0-----|
----------|----------|----------|-8------8-|
----2-----|----2-----|----2-----|----------|
-0----0---|-0----0---|-0----0---|-7----7---|
----------|----------|----------|----------|

----------|----------|------------|----------|
-0------0-|-0------0-|-----0------|----0-----|
----------|----------|-11------11-|-8------8-|
----2-----|----2-----|------------|----------|
-0----0---|-0----0---|--9----9----|-6----6---|
----------|----------|------------|----------|

----------|----------|----------|----------|
----0-----|----0-----|----0-----|----------|
-9------9-|-9------9-|-9------9-|-9--------|
----------|----------|----------|----------|
-7----7---|-7----7---|-7----7---|-7--------|
----------|----------|----------|----------|


VERSE - clean. acoustic
----------|----------|----------|----------|
-0------0-|-0------0-|----0-----|----0-----|
----------|----------|-6------6-|-7------7-|
----2-----|----2-----|----------|----------|
-0----0---|----------|-4----4---|-5----5---|
----------|-0----0---|----------|----------|

----------|----------|----------|----------|
-0------0-|-0------0-|----0-----|----0-----|
----------|----------|-6------6-|-7------7-|
----2-----|----2-----|----------|----------|
-0----0---|----------|-4----4---|-5----5---|
----------|-0----0---|----------|----------|

----------|----------|----------|----------|
-0------0-|-0------0-|----0-----|----0-----|
----------|----------|-6------6-|-7------7-|
----2-----|----2-----|----------|----------|
-0----0---|----------|-4----4---|-5----5---|
----------|-0----0---|----------|----------|

----------|----------|----------|----------|----------|
-0------0-|-0------0-|----0-----|----0-----|----0-----|
----------|----------|-6------6-|-7------7-|-8------8-|
----2-----|----2-----|----------|----------|----------|
-0----0---|----------|-4----4---|-5----5---|-7----7---|
----------|-0----0---|----------|----------|----------|


PRE-CHORUS - clean. accoustic
----------|----------|----------|----------|
-0------0-|-0------0-|-0------0-|----0-----|
----------|----------|----------|11-----11-|
----2-----|----2-----|----2-----|----------|
-0----0---|-0----0---|-0----0---|-9----9---|
----------|----------|----------|----------|

----------|----------|----------|----------|
----0-----|----0-----|----0-----|----0-----|
-8------8-|-8------8-|-8------8-|-8------8-|
----------|----------|----------|----------|
-6----6---|-6----6---|-6----6---|-6----6---|
----------|----------|----------|----------|

----------|----------|----------|----------|
-0------0-|-0------0-|-0------0-|----0-----|
----------|----------|----------|11-----11-|
----2-----|----2-----|----2-----|----------|
-0----0---|-0----0---|-0----0---|-9----9---|
----------|----------|----------|----------|

----------|----------|----------|----------|
----0-----|----0-----|----0-----|----------|
-8------8-|-8------8-|-9------9-|-9--------|
----------|----------|----------|----------|
-6----6---|-6----6---|-7----7---|-7--------|
----------|----------|----------|----------|


VERSE - clean. accoustic
----------|----------|----------|----------|
-0------0-|-0------0-|----0-----|----0-----|
----------|----------|-6------6-|-7------7-|
----2-----|----2-----|----------|----------|
-0----0---|----------|-4----4---|-5----5---|
----------|-0----0---|----------|----------|

----------|----------|----------|----------|
-0------0-|-0------0-|----0-----|----0-----|
----------|----------|-6------6-|-7------7-|
----2-----|----2-----|----------|----------|
-0----0---|----------|-4----4---|-5----5---|
----------|-0----0---|----------|----------|

----------|----------|----------|----------|
-0------0-|-0------0-|----0-----|----0-----|
----------|----------|-6------6-|-7------7-|
----2-----|----2-----|----------|----------|
-0----0---|----------|-4----4---|-5----5---|
----------|-0----0---|----------|----------|

----------|----------|----------|----------|----------|
-0------0-|-0------0-|----0-----|----0-----|----0-----|
----------|----------|-6------6-|-7------7-|-8------8-|
----2-----|----2-----|----------|----------|----------|
-0----0---|----------|-4----4---|-5----5---|-7----7---|
----------|-0----0---|----------|----------|----------|


PRE-CHORUS - clean. accoustic
----------|----------|----------|----------|
-0------0-|-0------0-|-0------0-|----0-----|
----------|----------|----------|11-----11-|
----2-----|----2-----|----2-----|----------|
-0----0---|-0----0---|-0----0---|-9----9---|
----------|----------|----------|----------|

----------|----------|----------|----------|
----0-----|----0-----|----0-----|----0-----|
-8------8-|-8------8-|-8------8-|-8------8-|
----------|----------|----------|----------|
-6----6---|-6----6---|-6----6---|-6----6---|
----------|----------|----------|----------|

----------|----------|----------|----------|
-0------0-|-0------0-|-0------0-|----0-----|
----------|----------|----------|11-----11-|
----2-----|----2-----|----2-----|----------|
-0----0---|-0----0---|-0----0---|-9----9---|
----------|----------|----------|----------|

----------|----------|----------|----------|
----0-----|----0-----|----0-----|----------|
-8------8-|-8------8-|-9------9-|-9--------|
----------|----------|----------|----------|
-6----6---|-6----6---|-7----7---|-7--------|
----------|----------|----------|----------|


CHORUS - light distortion
------------|-----------|----------|----------|
------------|-----------|----------|----------|
------------|-----------|5---5-5-5-|----------|
-2----2-2-2-|2----2-2-2-|5---5-5-5-|3---3-3-3-|
-2----2-2-2-|2----2-2-2-|3---3-3-3-|3---3-3-3-|
-0----0-0-0-|0----0-0-0-|----------|1---1-1-1-|


BRIDGE - clean. accoustic
----------|----------|----------|----------|
-0------0-|-0------0-|-0------0-|----0-----|
----------|----------|----------|-8------8-|
----2-----|----2-----|----2-----|----------|
-0----0---|-0----0---|-0----0---|-7----7---|
----------|----------|----------|----------|

----------|----------|------------|----------|
-0------0-|-0------0-|-----0------|----0-----|
----------|----------|-11------11-|-8------8-|
----2-----|----2-----|------------|----------|
-0----0---|-0----0---|--9----9----|-6----6---|
----------|----------|------------|----------|

----------|----------|----------|----------|
-0------0-|-0------0-|-0------0-|----0-----|
----------|----------|----------|-8------8-|
----2-----|----2-----|----2-----|----------|
-0----0---|-0----0---|-0----0---|-7----7---|
----------|----------|----------|----------|

----------|----------|------------|----------|
-0------0-|-0------0-|-----0------|----0-----|
----------|----------|-11------11-|-8------8-|
----2-----|----2-----|------------|----------|
-0----0---|-0----0---|--9----9----|-6----6---|
----------|----------|------------|----------|

----------|----------|----------|
----0-----|----0-----|----0-----|
-9------9-|-9------9-|-9------9-|
----------|----------|----------|
-7----7---|-7----7---|-7----7---|
----------|----------|----------|


BRIDGE - dist. Drown with delay
------------------------------------------------------------------------------
------------------------------------------------------------------------------
------------------------------------------------------------------------------
------------------------------------------------------------------------------
-2/4--4--4--4-2-------2/4--4/6-------64--42--------2/4--4/6--------6/7--/11
------------------------------------------------------------------------------

------------------------------------------------------------------------------
------------------------------------------------------------------------------
-------------------------------------------------2----------------------------
-/9----------------------------------------------2----------------------------
------/7-6------4--42------2/4-2-------0-------0----------------------------
------------------------------------------------------------------------------
Intro
G----------------------------------------------------------------------------
D----------------------------------------------------------------------------
A-0-0-0-0-0-0-4-4-0-0-0-0-7-7-4-4-0-0-0-0-0-0-4-4-0-0-0-0-7-7-4-4-5-5-5-5-5-5
E----------------------------------------------------------------------------
H----------------------------------------------------------------------------

Verse (4x)
G---------------- |-----
D----------------.|-----
A-0-0-----2-2----.|-4-4-
E-----0-0-----3-3 |-----
H-----------------------

Chorus1
G------------------------------------------------------------------------
D------------------------------------------------------------------------
A-0-0-0-0-0-0-0h2-4-4-4-4---4-4-4-0-0-0-0-0-0-0h2-4-4-4-4-5-5-5-5--------
E-----------------------------------------------------------------0~-----
H-------------------------2----------------------------------------------

Verse
G---------------- |-----
D----------------.|-----
A-0-0-----2-2----.|-4-4-
E-----0-0-----3-3 |-----
H-----------------------

Chorus1
G----------------------------------------------------------------
D----------------------------------------------------------------
A-0-0-0-0-0-0-0h2-4-4-4-4---4-4-4-0-0-0-0-0-0-0h2-4-4-4-4-5-5-5-5
E----------------------------------------------------------------
H-------------------------2--------------------------------------

Bridge (4x)
G----------------
D----------------
A---------3-3----
E-0-0-0-0-----1-1
H----------------

Intro
G----------------------------------------------------------------------------
D----------------------------------------------------------------------------
A-0-0-0-0-0-0-4-4-0-0-0-0-7-7-4-4-0-0-0-0-0-0-4-4-0-0-0-0-----4-4-5-5-5-5-5-5
E---------------------------------------------------------0-0----------------
H----------------------------------------------------------------------------

Chorus2
G----------------------------------------------------------------
D----------------------------------------------------------------
A-0-0-0-0-0-0-0h2-4-4-4-4---4-4-4-0-0-0-0-0-0-0h2-4-4-4-4-4-4-4-4
E----------------------------------------------------------------
H-------------------------2--------------------------------------

Chorus1
G----------------------------------------------------------------
D----------------------------------------------------------------
A-0-0-0-0-0-0-0h2-4-4-4-4---4-4-4-0-0-0-0-0-0-0h2-4-4-4-4-5~-----
E----------------------------------------------------------------
H-------------------------2--------------------------------------

Made by Chonchulio
Perfect circle, 3 libras.
Tabbed by jana javatoast@hotmail.com.


perfect circle
3 libras
transcribed by jana


TUNING: Eaegbe (tune the d string up to an e)


i'm quite sure this is the tuning they use...if you listen to the intro carefully,
you can hear the e string being plucked every 2 sec. or so..the only way i figured i could play
that was to tune the d up to the e
(if you thinK you're going to snap the string, tune everything a step down and put a capo on
the second fret)

*****
INTRO
*****

e --------------|-repeat 3 times ---> ---------------|play once
b -0----------0-| -4----------4--|
g --------------| ---------------|
e -----0--------| ----0----------|
a -0-------0----| -4-------4-----|
E --------------| ---------------|


e --------------|-play twice--> --------------|once ---------------|once
b -0----------0-| -7----------7-| -4----------4--|
g --------------| --------------| ---------------|
e -----0--------| -----0--------| ----0----------|
a -0-------0----| -7-------7----| -4-------4-----|
E --------------| --------------| ---------------|

play the whole thing again and then

e --------------| repeat 4 times
b -5----------5-|
g --------------|
e -----0--------|
a -5-------5----|
E --------------|


*****
VERSE
*****

threw you the obvious...
e ------------------------------------------------------------------------------repeat 4 times
b -0-----------0--------0------------0-------2----------2--------3-----------3--
g ------------------------------------------------------------------------------
e -------0---------------------0------------------0-------------------0---------
a -0--------0-------------------------------------------------------------------
E -----------------------0--------0----------2-------2-----------3--------3-----


e --------------| once
b -4----------4-|
g --------------|
e -----0--------|
a -4-------4----|
E --------------|



Difficult not to feel dissapointed.....

e --------------|-play 3 times ----------------|play once --------------|play 4 times
b -0----------0-| --> --7----------7--| -4----------4-|
g --------------| ----------------| --------------|
e -----0--------| -----0----------| ----0---------|
a -0-------0----| --7-------7-----| --4------4----|
E --------------| ----------------| --------------|

then:

e --------------|-play 3 times ----------------|play once --------------|play twice
b -0----------0-| --7----------7--| -4----------4-|
g --------------| ----------------| --------------|
e -----0--------| -----0----------| ----0---------|
a -0-------0----| --7-------7-----| --4------4----|
E --------------| ----------------| --------------|


e --------------| repeat twice
b -5----------5-|
g --------------|
e -----0--------|
a -5-------5----|
E --------------|



******
CHORUS
******
cause i thew you the obvious

E B# F
e ---------------------------- play 4x
b ----------------------------
g ---------1----------5-----2-
e ---------0----------3-----1-
a ---------2----------3-----3-
E ---------0----------0-----1-


(feel free to use any other variatios of the e, b# and f chords)

********************
play the INTRO again
********************

*****
OUTRO
*****

e -----------------------------------------------------------
b -----------------------------------------------------------
g -6---6---6---6--4---4---4---4---4---4---4---4---4---4------
e -----------------------------------------------------------
a -4---4---4---4--2---2---2---2---2---2---2---2---2---2------
E -----------------------------------------------------------

e -----------------------------------------------------------
b -----------------------------------------------------------
g 6---6---6---6-/-8---8---8---8---8---8---8---8---8---8------
e -----------------------------------------------------------
a 4---4---4---4-/-6---6---6---6---6---6---6---6---6---6------
E -----------------------------------------------------------


e -----------------------------------------------------------
b -----------------------------------------------------------
g -6-------6--4-------4---4---4---4---4---4---4---4---4-----
e -----------------------------------------------------------
a -4-------4--2-------2---2---2---2---2---2---2---2---2-----
E -----------------------------------------------------------



e ----------------------------------------------------------
b ----------------------------------------------------------
g /6---6---6---6-/-8---8---8---8---8---8---8---8---8---8----
e ----------------------------------------------------------
a /4---4---4---4-/-6---6---6---6---6---6---6---6---6---6----
E ----------------------------------------------------------


e ---------------------------------------------------------
b ---------------------------------------------------------
g /9---9---9---9-/-13--13--13--13--13--13--13--13--13--13--
e ---------------------------------------------------------
a /7---7---7---7-/-11--11--11--11--11--11--11--11--11--11--
E ---------------------------------------------------------


e ---------------------------------------------------------
b ---------------------------------------------------------
g 13-/-16--16--16--16--16--9---9---8---8---8---8---8---8---
e ---------------------------------------------------------
a 11-/-14--14--14--14--16--7---7---6---6---6---6---6---6---
E ---------------------------------------------------------



e ---------------------------------------------------------
b ---------------------------------------------------------
g -6-------4---4-------4-4-----4---4---4-4-/-6---6--4---4-
e ---------------------------------------------------------
a -4-------2---2-------2-2-----2---2---2-2-/-4---4--2---2-
E ---------------------------------------------------------


e ---------------------------------------------------------
b -----------------------------3---------------------------
g -4---4---4---4--2---2---2---2--or-7---------------------
e -----------------------------2-----5---------------------
a -2---2---2---2--0---0---0---0-----5---------------------
E ---------------------------------------------------------

the last chord is a b
not sure where it's played


LYRICS

(intro)
(verse)
threw you the obvious
and you flew with it on your back
a name in your recollection down among the millions
difficult not to feel a little bit disappointed and passed over
but i look right through see you naked but oblivious

(pause)
...but you don't see me

(verse)
but i threw you the obvious just to see if there was more behind
the eyes of a fallen angel, eyes of a tragedy
here i am expecting just a little bit too much from
the wounded but i see see through it all see through see you

(chorus)
cause i threw you the obvious to see what occurs behind
the eyes of a fallen angel eyes of a tragedy

(intro for the 2nd time)
oh well
oh well
apparently nothing
apparently nothing at all

(outro)
you don't see me
you don't see me at all
you don't............

**********************************************************************************

so that's it, comments/suggestions @ javatoast@hotmail.com
(the outro is almost identical to the tab by Gaius Oniros, i used part of it from his tab..)

:: Ultimate Guitar Archive ::
http://www.ultimate-guitar.com
A Perfect Circle - Three Libras.
Tabbed by Kevin Wallace, kevjava@pcisys.net.

A Perfect Circle - Three Libras
(transcribed by kevjava@pcisys.net)

Tune all six strings down two frets (D tuning)

/ - slide up
- slide down


Intro:

e--------------------------------------------------
B-3------3--3------3---3-----3-/--7-----7---------
G----0--------0----------0-----/----0-------------
D------------------------------/------------------
A-3----3----3----3-----3---3---/--7---7-----------
E--------------------------------------------------

e--------------------------------------------------
B-3------3---3-----3--/--10--------10----7------7-
G----0---------0------/------0--------------0-----
D---------------------/---------------------------
A-3----3-----3---3----/--10-----10-------7----7---
E--------------------------------------------------

e--------------------------------------------------
B-3------3--3------3---3-----3-/--7-----7---------
G----0--------0----------0-----/----0-------------
D------------------------------/------------------
A-3----3----3----3-----3---3---/--7---7-----------
E--------------------------------------------------

e--------------------------------------------------
B-3------3---3-----3--/--10--------10----7------7-
G----0---------0------/------0--------------0-----
D---------------------/---------------------------
A-3----3-----3---3----/--10-----10-------7----7---
E--------------------------------------------------

e--------------------------------------------------
B-8------8---8-----8----8------8---8---------------
G----0---------0----------0--------0---------------
D----------------------------------7---------------
A-8----8-----8---8------8----8-----8---------------
E--------------------------------------------------


Verse:

e--------------------------------------------------
B-3------3--3------3---5-----5----6------6---------
G----0--------0----------0----------0--------------
D--------------------------------------------------
A-3----3---------------5---5-----------------------
E-----------3----3----------------6----6-----------
Threw you the obvious and you ...
Play this four times and add this after the last one:

e---------------
B--7-------7----
G-----0---------
D---------------
A--7-----7------
E---------------


Prechorus:

e----------------------------------------------------------
B-3------3---3--------3----3----------3--/--10--------10---
G----0-----------0----------------0------/------0----------
D----------------------------------------/-----------------
A-3----3-----3------3------3--------3----/--10-----10------
E----------------------------------------------------------
Difficult not to feel a little bit... disa...
e----------------------------------------------------
B-7------7---7-----7------7------7---7------7--------
G----0---------0------------0-----------0------------
D----------------------------------------------------
A-7----7-----7---7--------7---7------7----7----------
E----------------------------------------------------
..pointed and passed over...
e--------------------------------------------------
B-3------3---3-----3---3------3--/--10--------10---
G----0---------0----------0------/------0----------
D--------------------------------/-----------------
A-3----3-----3---3-----3----3----/--10-----10------
E--------------------------------------------------

e--------------------------------------------------
B-7------7---7-----7----8------8---8---------------
G----0---------0----------0--------0---------------
D----------------------------------7---------------
A-7----7-----7---7------8---8------8---------------
E--------------------------------------------------


Chorus: ?

G Eb Ab
e----3-----6-----4------------------------------------
B----3-----8(6)--4------------------------------------
G----4-----8-----5------------------------------------
D----5-----8-----6------------------------------------
A----5-----6-----6------------------------------------
E----3-----6-----4------------------------------------


Bridge: ?

e----3-----5-----7------------------------------------
B----5(3)--7(5)--8(7)---------------------------------
G----5-----7-----9------------------------------------
D----5-----7-----9------------------------------------
A----3-----5-----7------------------------------------
E----3-----5-----7------------------------------------


The notes in parentheses are the ones I like to play,
instead of the ones that are probably right. I didn't
do the rhythm, if you're trying to learn this song, you
can probably figure that part out for yourself.


Lyrics:

Threw you the obvious and you
Flew with it on your back,
A name in your recollection
Down among a million same

Difficult not to feel a little bit
Disappointed and passed over
When I've looked right through
To see you naked and oblivious
And you don't see me

But I threw you the obvious
Just to see if there's more behind
The eyes of a fallen angel
Eyes of a tragedy

Here I am expecting just a little bit
Too much from the wounded
But I see, see through it all
See through, see you

Cause i threw you the obvious
To see what occurs behind the
Eyes of a fallen angel
Eyes of a tragedy
Oh well, oh well.
Apparently nothing.
Apparently nothing at all.

You don't, you don't, you don't see me.
You don't, you don't, you don't see me.
You don't, you don't, you don't see me.
You don't, you don't, you don't see me.
You don't see me.
You don't.
You don't.
You don't see me at all.


:: Ultimate Guitar Archive ::
http://www.ultimate-guitar.com