A Perfect Circle — A Stranger

На этой странице Вы можете ознакомиться с 2 версиями подбора аккордов для гитары к песне "A Stranger" группы (исполнителя) "A Perfect Circle".

Band: A Perfect Circle
Title: A Stranger
Album: Thirteenth Step
Credit goes to Sqweeky

Tuning: Standard with capo on 2nd fret


Intro
|--------0-----------0---0----------0------------0------|
|----------0-----------0--------------0~-----------0----|
|-------------------------------------------------------|
|----2-----------2--------------2------------2----------|
|------5-----------5-------5------5------------5-----0~-|
|-0-----------0--------------3------------3-------------|

|--------0---0---------0---0----------0------------0---0---|
|----------0-------------0--------------0~-----------0-----|
|----------------------------------------------------------|
|----2-------------2--------------2------------2-----------|
|------5-------------5-------5------5------------5-------5-|
|-0-------------0--------------3------------3--------------|

Verse/Chorus
|--------0---0---------0---0----------0------------0---0---|
|----------0-------------0--------------0~-----------0-----|
|----------------------------------------------------------|
|----2-------------2--------------2------------2-----------|
|------5-------------5-------5------5------------5-------5-|
|-0-------------0--------------3------------3--------------|x12

Interlude
|--------0---0-----------------------------------------|
|----------0------------0---0---------0----------------|
|-------------------------6----------------------------|
|----2---------------0--------------0------------------|
|------5-----------4--------------4------5--4-4--------|
|-0-------------0--------------0----------------5--5-4-|

|---------0---0--------------------------------------------|
|-----------0---------------0------------0--------------0--|
|-----------------------6-----6----------------------------|
|-----2---------------0---0------------0----0-----0---0----|
|-------5-----------4----------------4----------4---4------|
|--0-------------0----------------0-----------0------------|

Ending
|-----------------------------------------------------|
|-----------------------------------------------------|
|-----------------------------------------------------|
|----0-0--0----x-0----0-0-0-0-----0---0------0---0----|
|-5--5-5--5--5-x-5-5--5-5-5-5-------4---4~-----4---4~-|
|-0--0-0--0--0-x---0--0-0-0-0--0-----------0----------|x4
-------------------------------------------------------------------------------
A Stranger - A Perfect Circle
-------------------------------------------------------------------------------
Tabbed by:Alex Radovanovich

Tuning:C# F# B E G# C#



This is the whole song until the end.
C#|------------0----------------0-----------------0----------------0------|
G#|---------10---------------10---10-----------10---------------10---10---|
E |-------0----------------0---------0-------0----------------0---------0-|
B |-----7----------------7-----------------7----------------7-------------|
F#|-0----------------0----------------------------------------------------|
C#|------------------------------------8----------------8-----------------|



Bridge
C#|------------0----------------0-----------------------------------|
G#|---------10---10-----------7---7-----------5---------------------|
E |-------0-----------------0-------0-------0-------0---------------|
B |-----7-----------------4---------------2-------------2-2-0-------|
F#|-0-----------------0---------------0---------------------------4-|
C#|-----------------------------------------------------------------|

C#|------------0----------------0-0-----------------------------0-|
G#|---------10---10-----------7-----7---------5---------------5---|
E |-------0-----------------0---------------0-------0-------0-----|
B |-----7-----------------4---------------2-----------2---2-------|
F#|-0-----------------0---------------0-----------------0---------|
C#|---------------------------------------------------------------|



Outro (Shy away...)
C#|-0-----------------------------------|
G#|-5-----------------------------------|
E |-0-----------0---0-----------0---0---|
B |-2-------------4---4-----------4---4-|
F#|-0-----------------------------------|
C#|---------3---------------3-----------|



| / slide up
| slide down
| h hammer-on
| p pull-off
| ~ vibrato
| + harmonic
| x Mute note
===============================================================================