A Perfect Circle — Brena

На этой странице Вы можете ознакомиться с 3 версиями подбора аккордов для гитары к песне "Brena" группы (исполнителя) "A Perfect Circle".

Brena-A Perfect Circle
Mer De Noms

C# F# B E G# C#

bass for 8 bars

e-----------------------------------------------------------------
b-----------------------------------------------------------------
g---------16-------17-16--16-----16---------------16-------17-16--
d----14------14---------------14-----14-------14-----14-----------
a-16------------16----------------------16-16-----------16--------
e-----------------------------------------------------------------

e-----------------------------------------------------------------
b-----------------------------------------------------------------
g-16-----16-----------------16------16---------16-----------------
d-----14-----14----16/18-18----18--------18--------18-------------
a---------------0--0-------------------------0---------0----------
e-----------------------------------------------------------------

Verse

e---------0-------------------------0-------------0---------------
b-------0---0----------0----------0---0---------------------------
g-----6--------------6----------6---------------6-----------------
d---6--------------6----------6---------------6-------------------
a-4--------------4----------4------------4------------------------
e-----------------------------------------------------------------

e--------------------------------------------7--------------------
b----------------------------------3---------5--------------------
g---------6----6-----------------6----6------6--------------------
d------0-----------------------0-------------0--------------------
a-4---------------------------------------------------------------
e----5----------------------5-------------------------------------

Chorus:

gtr 1.

e-----------------------------------------------------------------
b-----------------------------------------------------------------
g-x-6-6-9-9-6-6-11--4-4-6-6--6-9-9-6-6-611--4-4-6-6--6-6-9-6-6-611
d-x-6-6-9-9-6-6--x--x-x-x-x--x-x-x-x-x-x-x--x-x-x-x--x-x-x-x-x-xx-
a-x-4-4-7-7-4-4--9--2-2-4-4--4-7-7-4-4-4-9--2-2-4-4--4-4-7-4-4-49-
e-----------------------------------------------------------------

gtr 2.

e-----------------------------------------------------------------
b---9-9-----7-7---------------------------------------------------
g---8-8-9-9-6-6-2-2---4---7---------------------------------------
d---6-6-----4-4-2-2---4---7---------------------------------------
a-x-----7-7-----0-0---2---5---------------------------------------
e-----------------------------------------------------------------

Interlude:

e-----------------------------------------------------------------
b--------------------------------7-7-7-7-7-7-9-9-9-9-9-9-9-9-9-9-9
g-6-6-6-6-6-6-8-8-8-9-9--9-9-9-9-x-x-x-x-x-x-x-x-x-x-x-x-x-x-x-x-x
d-x-x-x-x-x-x-x-x-x-x-x--x-x-x-x-4-4-4-4-4-4-6-6-6-6-6-6-6-6-6-6-6
a-4-4-4-4-4-4-6-6-6-7-7--7-7-7-7----------------------------------
e-----------------------------------------------------------------

Solo:

e-12-11-----------------------------------------------------------
b-------9------------------------10p9--10p9-----------------------
g----------------------9h11-9-11--------------11-9p8-8------------
d-----------------------------------------------------------------
a-----------------------------------------------------------------
e-----------------------------------------------------------------

e-11p10p9---------------------------------------------------------
b---------12-10-9-10p9---------------------------4-5p4------------
g----------------------11p9-11b--11-9--------4-6-------6-4-6-4-6-4
d-------------------------------------11-2/6----------------------
a-----------------------------------------------------------------
e-----------------------------------------------------------------

e-----------------------------------------------------------------
b------5p4--------7p4---------------5p4---------------------------
g-6--4-----4-6--4-----4-6--6-4-6--4-----4-6-----------------------
d---------------------------------------------4h6--6b-------------
a------------------------------------------------------4-6b-6-0---
e-----------------------------------------------------------------

e----------0------------------------------------------------------
b----------0------------------------------------------------------
g----------6------------------------------------------------------
d----------6------------------------------------------------------
a----------4------------------------------------------------------
e-4-5--7----------------------------------------------------------

that’s all of it

trevor jones
timmy91199@yahoo.ca
A Perfect Circle - Brena
Tune ALL strings down 3 half steps from standard

Intro: (clean electric)
|---------------------------------------------------------------------|
|---------------------------------------------------------------------|
|------4----54--4------4------------------------4------4---4---------|
|----2---2--2------2------2- repeat -------4/6-6---6--2---2---2-------|
|--4--------4---------4-----------------0--0----------0---------------|
|---------------------------------------------------------------------|

|---------------------------------------------------------------------|
|---------------------------------------------------------------------|
|--------4---4--------------------------------------------------------|
|--4/6-6---6-6- repeat whole intro -----------------------------------|
|--0---------0--------------------------------------------------------|
|---------------------------------------------------------------------|

Verse: (clean electric)
|-----------0------------------------0-----------------------0--------|
|---------0-----------0------------0----------0------------0----------|
|-------6-----------6------------6----------6------------9------------|
|-----6------------------------6-----------------------9--------------|
|---4------------------------4-----------------------0----------------|
|---------------------------------------------------------------------|

Chorus: (distortion electric, great chorus!)
|---------------------------------------------------------------------|
|---------------------------------------------------------------------|
|--6-6-/-9-9--6-6-/-11-11----9--6----6-/-9--6-/-11--4-/-6----------|
|--6-6-/-9-9--6-6-/-11-11----9--6----x-/-x--x-/-x---x-/-x----------|
|--4-4-/-7-7--4-4-/-9--9---0-0--0----4-/-7--4-/-9---2-/-4----------|
|---------------------------------------------------------------------|
(--- play this twice --)

|-----------------------------5----4----------------------------------|
|-----------------------------5----4----------------------------------|
|-13-13--9-9-/-11-11---2--4--7----6----------------------------------|
|-13-13--9-9-/-11-11---2--4--7----6----------------------------------|
|-11-11--7-7-/-9--9----0--2--5----4----------------------------------|
|---------------------------------------------------------------------|

Verse Electric: (this is played about 4 times)
|---------------------------------------------------------------------|
|---------------------------------------------------------------------|
|--6--/--8--/--9--/--11--/--13----------------------------------------|
|--x--/--x--/--x--/--x---/--x-----------------------------------------|
|--4--/--6--/--7--/--9---/--11----------------------------------------|
|---------------------------------------------------------------------|

Right Before Solo:
|---------------------------------------------------------------------|
|---------------------------------------------------------------------|
|--6----------6-/-9--8---4--6---------6------6-/-9--8---4--2---------|
|--6----------6-/-9--8---4--6---------6------6-/-9--8---4--2---------|
|--4----------4-/-7--6---2--4---------4------4-/-7--6---2--0---------|
|---------------------------------------------------------------------|

Solo:
|--12--11--------------------------------------------11-10-9----------|
|-----------9~--------------10-9--10-9-----------------------12-10-9--|
|-----------------9-11-9-x---------------11-9----8--------------------|
|---------------------------------------------11----------------------|
|---------------------------------------------------------------------|
|---------------------------------------------------------------------|

|---------------------------------------------------------------------|
|-10-9----------------------------------------------------------------|
|------11-9-11^13-11-9-------------8-8h9p8----------------------------|
|----------------------11-----9-11----------11-9-11-9-11~-------------|
|-------------------------/11-----------------------------------------|
|---------------------------------------------------------------------|

|---------------------------------------------------------------------|
|---------------------------------------------------------------------|
|------9p8---------11p8---------------9p8-----------------------------|
|-11-------9-9/11-------9-9/11---11-------9-9-------------------------|
|-------------------------------------------------9-11--11^12^11------|
|---------------------------------------------------------------------|
3:20
e----10--9---------------------|
B------------7-----------------|
G------------------------------|
D------------------------------|
A------------------------------|
D------------------------------|

e---------------------------------------|
B-------------8--7---8--7---------------|
G---7--9--7----------------9---9--7--6--|
D---------------------------------------|
A---------------------------------------|
D---------------------------------------|

3:29
e-----9--8--7------------------|
B--------------10--8--7--8--7--|
G------------------------------|
D------------------------------|
A------------------------------|
D------------------------------|

e------------------------------|
B------------------------------|
G--9~-9--7---------------------|
D------------9-----------------|
A------------------------------|
D------------------------------|

next run not exact

3:33
e----------------------------------------------|
B----------------------------------------------|
G------------7--6--7--6-------7--6-------------|
D------7--9--------------7--9-------7--9-7--9--|
A--/-9-----------------------------------------|
D----------------------------------------------|

3:36
e----------------------------------------|
B----------------------------------------|
G----------7--6-------------9--7---------|
D--7--9--x------9---7--9--x------9-------|
A----------------------------------------|
D----------------------------------------|

3:42
e------------------------------|
B------------------------------|
G---------6--7-----------------|
D---7--9-------9---------------|
A------------------7^9--9~-----|
D------------------------------|

e------------------------------|
B------------------------------|
G------------------------------|
D------------------------------|
A------------------------------|
D--9---12----5---7---9---------|