A Perfect Circle — Gravity

Band- A Perfect Circle
Album- the 13th step


Intro:
E |--------------------------------------------------
B |--------------------------------------------------
F#|-----5-7-7-5-7--7-7-5-7-----5-7-7-5-7---7-7-5-7---
Db|--5-7---------5---------5-7-----------5-----------

Verse:
Lost Again Broken and weary
E |--------------------------------------------------
F |--------------------------------------------------
F#|7-7-5-7---7-7-5-7------5-7-7-5-7--7-7-5-7-----5---
Db|-------5----------5-7-----------5---------5-7-----

Unable to find my way
E |--------------------------------------------------
F |--------------------------------------------------
F#|7-7-5-7---7-7-5-7------5-7-7-5-7--7-7-5-7-----5---
Db|-------5----------5-7-----------5---------5-7-----

Tail in hand dizzy and clearly
E |--------------------------------------------------
F |---9-7-9------9-7-9-7-----------------------------
F#|7-7-------7-7-------------7-7-5-7---7-7-5-7----5--
Db|----------------------------------5---------5-7---

Unable to Just let this go
E |--------------------------------------------------
F |---9-7-9------9-7-9-7-----------------------------
F#|7-7-------7-7-------------7-7-5-7---7-7-5-7----5--
Db|----------------------------------5---------5-7---

Chorus:
I am surrendering
E |--------------------------------------------------
F |--------------------------------------------------
F#|--7 x5--------------------10 x5-------------------
Db|--------------------------------------------------

To the Gra-vi-ty and the unknown
E |--------------------------------------------------
F |--------------------------------------------------
F#|------------------------------7-7-5-7--7-7-5-7---5
Db|---5 x5------------------------------5--------5-7-

Repeat-x1

Verse2:

I fell again Like a baby
E |--------------------------------------------------
F |--------------------------------------------------
F#|7-7-5-7---7-7-5-7------5-7-7-5-7--7-7-5-7-----5---
Db|-------5----------5-7-----------5---------5-7-----

Unable to stand on my own
E |--------------------------------------------------
F |--------------------------------------------------
F#|7-7-5-7---7-7-5-7------5-7-7-5-7--7-7-5-7-----5---
Db|-------5----------5-7-----------5---------5-7-----

Tail in hand dizzy and clearly
E |--------------------------------------------------
F |---9-7-9------9-7-9-7-----------------------------
F#|7-7-------7-7-------------7-7-5-7---7-7-5-7----5--
Db|----------------------------------5---------5-7---

Unable to Just let this go
E |--------------------------------------------------
F |---9-7-9------9-7-9-7-----------------------------
F#|7-7-------7-7-------------7-7-5-7---7-7-5-7----5--
Db|----------------------------------5---------5-7---


Chorus2:
I am surrendering
E |--------------------------------------------------
F |--9-7-9---9-7-9-----------9-7-9-----9-7-9---------
F#|7 ------7---------------10 ------10---------------
Db|--------------------------------------------------

To the Gra-vi-ty and the unknown
E |---9-7-9----9-7-9----------------------------------
F |-7--------7----------------------------------------
F#|-------------------------------7-7-5-7--7-7-5-7---5
Db|---------------------------------------5-------5-7-

Catch me heal me
E |--------------------------------------------------
F |--9-7-9---9-7-9-----------9-7-9-----9-7-9---------
F#|7 ------7---------------5 ------5-----------------
Db|--------------------------------------------------




Lift me back up to the sun
E |--------------------------------------------------
F |--------------------------------------------------
F#|----------------------------5-------7-------------
Db|--5----3-----5-----3---7--------------------------

I choose to live - I choose to live
E |--------------0------0------------979----9797-----
F |--979---9797----979----9797------7------7---------
F#|--------------------------------------------------
Db|0-----0-------------------------------------------

I choose to live
E |--------------------------------------------------
F |----979----9797-----------------------------------
F#|--------------------------------------------------
Db|--0------0----------------------------------------

Lift me back up to the sun
E |--------------------------------------------------
F |--------------------------------------------------
F#|-----------------------------5----7---------------
Db|---5----3----5------3---7-------------------------

Help me survive the bottom
E |--------------------------------------------------
F |--------------------------------------------------
F#|---7/ 12x3--10x3---9x3 10x3 9-7------------------
Db|--------------------------------------------------


-play intro and then-

Calm these hands before -they
E |--------------------------------------------------
F |--------------------------------------------------
F#|------------------------3-----5-----7------9/10---
Db|--0-------0------3-3------------------------------

Snare another pill - and
E |--------------------------------------------------
F |--------------------------------------------------
F#|--7---7--9--9----10---/12------------14-15-14-12-14
Db|--------------------------------------------------

Drive another nail -down
E |--------------------------------------------------
F |--------------------------------------------------
F#|------------------------3-----5-----7------9/10---
Db|--0-------0------3-3------------------------------


Another meaty hole - please
E |--------------------------------------------------
F |--------------------------------------------------
F#|------------------------3---let ring--------------
Db|--0-------0------3-3------------------------------

Release Me
E |--------------------------------------------------
F |--------------------------------------------------
F#|--------------------------------------------------
Db|------7---------------------------5---------------


Then:

Db|--0--3--00--3---0030-- x8


Ending:

I am surrendering
E |--------------------------------------------------
F |--------------------------------------------------
F#|--7 x5--------------------5 x5--------------------
Db|--------------------------------------------------

To the Gra-vi-ty and the unknown
E |--------------------------------------------------
F |--------------------------------------------------
F#|--------------------------------------------------
Db|------5 x5--------------------5 x5----------------

Catch me heal me
E |--------------------------------------------------
F |----------------7-7-7-7--------------------7-7-7-7
F#|--7-9-10-10-10-----------------7-9-10-10-10-------
Db|--------------------------------------------------

Lift me back up to the sun
E |--------------------------------------------------
F |--------------------------------------------------
F#|-------------------------------------5------------
Db|------5x5-----------------------------------------

I choose to live
F#|------7---------------------5 x2