A Perfect Circle — Judith (ver 11)

Judith

This is all of the important parts of the song.
Drop D tuning, tune down 1 1/2 step:
(low to high) B-F#-B-E-G#-C#

Intro
Moderately fast Rock=55

--------------------------------------------------------------------
--------------------------------------------------------------------
--------------x--x---------------------------------------19--19--18-
--7//9--9--9--x--x--7//9--109--7//9--7//9--9--9--9//----x---x---x-
--5//9--7--7--x--x--5//7---89--5//7--5//7--7--7--7//---17--17--17-
--------------------------------------------------------------------

PM..... PM..... grad. bend
----------------------------------------------- -----------------------
----------------------------------------------- -----------------------
--7h9-9-9-9-9-7h9-109-7h9-7h9-9-9-9-7--------- -----------------------
---------------------------------------5--5--5- -----------------------
----------------------------------------------- -10--5/7--7------7b-
----------------------------------------------- -----------------------

1/2 bend grad. release
-------------------------------
-------------------------------
-------------------------------
-------------------------------
----(7)b---r------r---r(7)p5h7-
-------------------------------
Verse Rhy.Fig1 End Rhy.Fig 1
PM.............................................
------------------------------------------------
------------------------------------------------
------------------------------------------------
------------------------------------------------
--0-2-2-2---2-0-2-3-2-0-2-0-2-2-2-2-0-5---5---5-
--0-2-2-2---2-0-2-3-2-0-2-0-2-2-2-2-0-5---5---5-

PM..................................
------------------------------------------------------
------------------------------------------------------
------------------------------------------------------
---------------------------------------5---5---5//7---
--0-2-2-2---2-0-2-3-2-0-2-0-2-2-2-2-0--5---5---5//7---
--0-2-2-2---2-0-2-3-2-0-2-0-2-2-2-2-0--5---5---5//7---

PM................................ 1 1/2 bend
------------------------------------------------------
------------------------------------------------------
------------------------------------------------------
------------------------------------------------------
--0-2-2-2---2-0-2-3-2-0-2-0-2-2-2-0-------------------
--0-2-2-2---2-0-2-3-2-0-2-0-2-2-2-0----5-----5b-----2-

Chorus RiffA 1/2 bends End RiffA
-------------------------------------------------------------------------
-------------------------------------------------------------------------
--15----15--15--1514--14----14--14--14--9---9--9--9br(9)br(9)---9---
---x-----x---x---x---x---x-----x---x---x-----x---x--x--x-------------x---
--13----13--13--1312--12----12--12--12--7---7--7--7br(7)br(7)---7---
-------------------------------------------------------------------------


----------------------------------------------------------
----------------------------------------------------------
--/14----------13--------16-16-16-16-16//19--11---11---11-
----x-----------x---------x--x--x--x--x-------x----x----x-
--/12----------11--------14-14-14-14-14//17---9----9----9-
----------------------------------------------------------

RiffB
-----------------------------17--17-17------------------15--15--15-
--5////////17---17---(17)-----------------/15---15--(15)---------------
-----------------------------------------------------------------------
-----------------------------------------------------------------------
-----------------------------------------------------------------------
-----------------------------------------------------------------------


-------------------17--17--17--/15-------------15--15--15-
--/17---17---(17)----------------/15---15---(15)--------------
--------------------------------------------------------------
--------------------------------------------------------------
--------------------------------------------------------------
--------------------------------------------------------------

End RiffB
-------------------17--17--17--/15--------------//19---(19)/20-
--/17---17---(17)----------------/15---15---(15)-----------------
-----------------------------------------------------------------
-----------------------------------------------------------------
-----------------------------------------------------------------
-----------------------------------------------------------------

Interlude
---------------------------------------------------------------------------
--/12-12-12-12-12/15-10----10----9----9-9/10----------/15--1514--14-(14)-
---------------------------------------------9---9-/15---------14-(14)-
---------------------------------------------------------------------------
---------------------------------------------------------------------------
---------------------------------------------------------------------------


------------------------------------------------------------------------
-------------------------(15)--1514--14-(14)--------------------------
--/9--9-9-9/109--9-9-9///15----------14-(14)-/9--9-9-9/109--9-9-9///-
------------------------------------------------------------------------
------------------------------------------------------------------------
------------------------------------------------------------------------


------------------------------------------------------
-/15----------14-------14--------------------------
-/15---1514--14-------14---/9---9-9-9/1097/97-
-------------------------------/9---9-9-9/1097/97-
------------------------------------------------------
------------------------------------------------------

2
-------------------------------------------------------------------
-15h17-17-17---17-15h17-17br-(17)-15h17-15h17-17-17-17-15----------
----------------------------------------------------------16-16-16-
-------------------------------------------------------------------
-------------------------------------------------------------------
-------------------------------------------------------------------


-------------------------------------------------------------------
-15h17-17-17---17-15h17-17br-(17)-15h17-15h17-17-17-17-15----------
----------------------------------------------------------16-16-16-
-------------------------------------------------------------------
-------------------------------------------------------------------
-------------------------------------------------------------------

~~~~~~~~~~~~~~~~~~~~~~~~~~~~~~~~~~~~~~~~~~~~~~~~~~~~~~~~~~~~~
---------------------------------------------------------------------------
-14-------15---------------------------------------------------------------
---------------------------------------------------------------------------
---------------------------------------------------------------------------
---------------------------------------------------------------------------
---------------------------------------------------------------------------

1 bend 1 bend
-------------------------------------------------------------------
-14-------15-----15---(15)--/15-----15-15-15b--------------------
---------------------------------------------------14----14-14-14b-
-------------------------------------------------------------------
-------------------------------------------------------------------
-------------------------------------------------------------------


Intro 2 times

PM..................................
------------------------------------------------- --------------
------------------------------------------------- --------------
------------------------------------------------- --------------
-------------------------------------5---5---5/7- -------5------
-0-2-2-2-2-2-0-2-3-2-0-2-0-2-2-2-2-0-5---5---5/7- --------------
-0-2-2-2-2-2-0-2-3-2-0-2-0-2-2-2-2-0-5---5---5/7- -/5---------2-

---------------------------------------------------
---------------------------------------------------
--16--16-16-16/19-14---1413--13--13-13/14--9--9-
---x---x--x--x-----x----x------x---x--x-----x--x---
--14--14-14-14/17-12---1211--11--11-11/12--7--7-
---------------------------------------------------


--------------------------------------------------------------------
-///17-----1715---/19--(19)/20---17---(17)-/17-----17/15-15-15-15-
--------------------------------------------------------------------
--------------------------------------------------------------------
--------------------------------------------------------------------
--------------------------------------------------------------------


------------------------------------------------------------------------
-/2012-12-12-12---1210-10-10-10/--/17-17-17-17-17--1715-15-15-15-/19-
------------------------------------------------------------------------
------------------------------------------------------------------------
------------------------------------------------------------------------
------------------------------------------------------------------------

steady gliss w/slide
------------------------
-(19)////////////////24-
------------------------
------------------------
------------------------
------------------------


-----------------------------------------------------
-----------------------------------------------------
-16--16-16-16/19-14---1413-13--13-13-13/14-9---9-
--x---x--x--x-----x----x-----x---x--x--x----x---x----
-14--14-14-14/17-12---1211-11--11-11-11/12-7---7-
-----------------------------------------------------

RiffB

Outro
-------------------------------------------------------- ------------------
-------------------------------------------------------- --------------/12-
-/16--16-16-16/19--14--14-1413--13---13-13/14--9---9- -13---13---14-/12-
---x---x--x--x------x---x--x------x----x--x-----x---x--- --x----x----x-/12-
-/14--14-14-14/17--12--12-1211--11---11-11/12--7---7- -11---11---12-----
-------------------------------------------------------- ------------------