A Perfect Circle — Magdalena

На этой странице Вы можете ознакомиться с 2 версиями подбора аккордов для гитары к песне "Magdalena" группы (исполнителя) "A Perfect Circle".

Title : Magdalena
Artist: A perfect Circle
Album : Mer De Noms

Tabbed by Interloper
Tuning is Three steps down ( C#, F#, B, E )

Riff #1

F#|--------|--------|--------|--------| - Not exact number of notes -
C#|00000000|00000000|00000000|33333333| the picking's easy to pick out

Riff #2

F#|--------|--------|--------|--------|
C#|-0------|--------|--------|-3------|

Riff #3

F#|77777777|99999999|55555555|33333333|
C#|--------|--------|--------|--------|

then
F#|77777777|99999999|12121212|10101010| - 12th and 10th frets
C#|--------|--------|--------|--------|

Riff #4

F#|--------|--------|--------|--------|
C#|-0---0--|-0---0--|-0---0--|-3---3--|

Riff #5

F#|--------|--------|--------|--------|
C#|-0------|-0------|-0------|-0------|

Riff #6

F#|--------|--------|--------|
C#|33333333|3/555555|00000000|

Riff #7

F#|--------|--------|--------|
C#|33333333|3/121212|00000000| - 12th fret

Structure:

Riff #1 x 4
Riff #2 x 4
Riff #3 x 2

Riff #4 x 2
Riff #3 x 2

Riff #4 x 2

Riff #5 x 5
Riff #6 x 1
Riff #5 x 1
Riff #6 x 1

Riff #5 x 5
Riff #6 x 1
Riff #5 x 1
Riff #6 x 1

Riff #5 x 2
Riff #6 x 2
Symbols:
^F - full bend
^.5 - half step bend
r - release bend
/ - slide up
- slide down

Intro
|----------|---|-------------|---|-----------|---|----------
|----------|---|-------------|---|-----------|---|----------
|----------|---|-------------|---|---6-------|---|----------
|----6-5-6-|---|5/-8-6-5-6-3-|-6-|-----6-5-6-|---|-5/8-6-5--
|-4--------|---|-------------|---|-4---------|---|----------
|----------|---|-------------|---|-----------|---|----------

|-13-|----|-------------------------|-----|-13-|----|-------
|----|-14-|-------------------------|-----|----|-14-|-------
|----|----|-11/1311/13/1513/1513-|-----|----|----|-------
|----|----|-------------------------|-11--|----|----|---6-5-
|----|----|-------------------------|-----|----|----|-4-----
|----|----|-------------------------|-----|----|----|-------

Verse 1




Chorus
2 guitars - for 1 guitar just play lead riff
|-------|-------|------|------|-------|-------|------|------
|-------|-------|------|------|-------|-------|-14---|-(14)-
|-13-12-|-15----|------|------|-13-12-|-15----|------|------
|-------|-------|-13---|-11---|-------|-------|------|------
|-------|-------|------|------|-------|-------|------|------
|-------|-------|------|------|-------|-------|------|------|
|
| use 8th note strumming
|-------|-------|------|------|-------|-------|------|------
|-------|-------|------|------|-------|-------|------|------
|-13----|-15----|-8----|-6----|-13----|-15----|-8----|-6----
|-------|-------|------|------|-------|-------|------|------
|-11----|-13----|-6----|-4----|-11----|-13----|-6----|-4----
|-------|-------|------|------|-------|-------|------|------



Verse 2
|--------|---------|--------|--------|
|--------|---------|--------|--------|
|-6------|---------|--------|--------| let chord ring
|-6------|---------|--------|--------| and decay
|-4------|---------|--------|--------|
|--------|---------|--------|--------|

--------rest 4 measures for bass


Repeat Chorus

Fill 1
|-11-------|-11----------14^F-----|
|-16-------|-16--14---------------|
|----------|---------15-----------| play 4
|----------|----------------------| times
|----------|----------------------|
|----------|----------------------|

Solo
Play lead over Outro (x8)
|-(16)--r--|-13-------|-------------------------|----------|
|----------|----------|-------------------------|----------|
|----------|----------|-11/1311/13/1513/1513-|----------|
|----------|----------|-------------------------|-11-------|
|----------|----------|-------------------------|----------|
|----------|----------|-------------------------|----------|

|-13-^.5r--|----------|-------------------------|----------|
|----------|-14-------|-------------------------|----------|
|----------|----------|-11/1311/13/1513/1513-|----------|
|----------|----------|-------------------------|-11-------|
|----------|----------|-------------------------|----------|
|----------|----------|-------------------------|----------|

|------------------------------|--------------------------|
|------------------------------|--------------------------|
|-----------11-----11-13^.5r~~-|-------------11--13^.5r~~-|
|-13--11-13-----13-------------|-13--11--13---------------|
|------------------------------|--------------------------|
|------------------------------|--------------------------|

Outro
|-------|-------|--------|--------|
|-------|-------|--------|--------|
|-------|-------|-6------|-6------| play 4
|-2-----|-4-----|-6------|-6------| times
|-2-----|-4-----|-4------|-4------|
|-0-----|-2-----|--------|--------|


** may not be 100% correct but i tried.. and i think the end of the intro has been cut
off, not enuff room in this god damn box.. anyway, have a go at this**