A Perfect Circle — Orestes

На этой странице Вы можете ознакомиться с 3 версиями подбора аккордов для гитары к песне "Orestes" группы (исполнителя) "A Perfect Circle".

Artist- A Perfect Circle
Song- Orestes
Tab- By Jonathan Bissonnette

Tuning- C# F# B E G# C#

Intro/Verse

w/Chorus pedal
|--------------3---3-----|
|-----3-----3----3---3---|
|---4-----4--------2---2-|
|-2-----2----------------|
|------------------------|
|------------------------| x10

Chorus

|------------------------------------------------|
|-----3---3--------3---3-------3---3-------3---3-|
|---4---4--------4---4-------4---4-------4---4---|
|-2---2------------------------------------------|
|--------------5---5-------3----3------3----3----|
|------------------------------------------------|

Verse 2- Same as Verse 1 x4

Bridge

|-------------------------------------------------|
|-16-15-13/12-12--15-15/12/10-10-10-10-10-10/8-8--|
|-------------------------------------------------|
|-------------------------------------------------|
|-------------------------------------------------|
|-------------------------------------------------|

Interlude

|-------------------------|
|-------------------------|
|-9-9-9-9-9-9/5-5-5-5-5-5-|
|-9-9-9-9-9-9/5-5-5-5-5-5-|
|-7-7-7-7-7-7/3-3-3-3-3-3-|
|-------------------------| x4

Gtr.1

|-------------------------------------------------|
|-------------------------------------------------|
|-9-9-9-9-9-9/7-7-7-7-7-7/5-5-5-5-5-5-5-5-5-5-5-5-|
|-9-9-9-9-9-9/7-7-7-7-7-7/5-5-5-5-5-5-5-5-5-5-5-5-|
|-7-7-7-7-7-7/5-5-5-5-5-5/3-3-3-3-3-3-3-3-3-3-3-3-|
|-------------------------------------------------| x4

Gtr.2

|-----------------------------------|
|-----5-----------------------------|
|-2h4---4-4p2--0-------0------0-0-2-|
|----------------2-2h4---4-2--------|
|-----------------------------------|
|-----------------------------------|

|-----------------------------------|
|-----5-----------------------------|
|-2h4---4-4p2--0-------0------0-0---|
|----------------2-2h4---4-2--------|
|-----------------------------------|
|-----------------------------------|

|-------------------------------|
|-----5-------------------------|
|-2h4---4-4p2--0-------0------0-|
|----------------2-2h4---4-2----|
|-------------------------------|
|-------------------------------|

|-------------------------------------------|
|-------------------------------------------|
|-------------------------------------------|
|--2-2-2-2p0-0-0-0--------------------------|
|-------------------4-4-4-4p2-2-2-2p0-------|
|-------------------------------------------|
|-------------------------------------------|

Before solo

w/chorus pedal
|--------------3---3-----|
|-----3-----3----3---3---|
|---4-----4--------2---2-|
|-2-----2----------------|
|------------------------|
|------------------------|

Solo

w/delay
|--------------------------------------|
|--------------------------------------|
|-/19-19-19h21-21/16-16-16h17p16h17p16-|
|--------------------------------------|
|--------------------------------------|
|--------------------------------------|

|----------------------------------------|
|----------------------------------------|
|-/19-19-19h21-21--21-21-21^-21^-21^-21^-|
|----------------------------------------|
|----------------------------------------|
|----------------------------------------|
grad. bend up

|--------------------------------------|
|--------------------------------------|
|-/19-19-19h21-21/16-16-16h17p16h17p16-|
|--------------------------------------|
|--------------------------------------|
|--------------------------------------|


|------------|
|------------|
|16~/14-14~--|
|------------|
|------------|
|------------|

Second Part

|---------------------------------|
|---------------------------------|
|-/12-12-12h14-14/9-9-9h10p9h10p9-|
|---------------------------------|
|---------------------------------|
|---------------------------------|

|-----------------------------------------|
|-----------------------------------------|
|-/12-12-12h14-14--14-14-14^-14^-14^-14^--|
|-----------------------------------------|
|-----------------------------------------|
|-----------------------------------------|
grad. bend up

|---------------------------------|
|---------------------------------|
|-/12-12-12h14-14/9-9-9h10p9h10p9-|
|---------------------------------|
|---------------------------------|
|---------------------------------|

|---------|
|---------|
|-9~/7-7~-|
|---------|
|---------|
|---------|

After solo

|-------|
|-------|
|-------|
|-6-7-9-|
|-6-7-9-|
|-4-5-7-|

Chorus 2

Gtr.1

|-------------------------------------------------|
|-------------------------------------------------|
|-9-9-9-9-9-9/7-7-7-7-7-7/5-5-5-5-5-5-5-5-5-5-5-5-|
|-9-9-9-9-9-9/7-7-7-7-7-7/5-5-5-5-5-5-5-5-5-5-5-5-|
|-7-7-7-7-7-7/5-5-5-5-5-5/3-3-3-3-3-3-3-3-3-3-3-3-|
|-------------------------------------------------| x4

Gtr.2 fill In

|-----------------------------------------------|
|-----------------------------------------------|
|---9^~~~----14~~~--7/9~-9-9-9-9--9h10p9h10p9/7-|
|-----------------------------------------------|
|-----------------------------------------------|
|-----------------------------------------------|
Listen for the timing

Outro

Gtr.1

|-------------------------------------------------|
|-------------------------------------------------|
|-9-9-9-9-9-9/7-7-7-7-7-7/5-5-5-5-5-5-5-5-5-5-5-5-|
|-9-9-9-9-9-9/7-7-7-7-7-7/5-5-5-5-5-5-5-5-5-5-5-5-|
|-7-7-7-7-7-7/5-5-5-5-5-5/3-3-3-3-3-3-3-3-3-3-3-3-|
|-------------------------------------------------| x2

Gtr.2

|-----------------------------------|
|-----5-----------------------------|
|-2h4---4-4p2--0-------0------0-0-2-|
|----------------2-2h4---4-2--------|
|-----------------------------------|
|-----------------------------------|

|-----------------------------------|
|-----5-----------------------------|
|-2h4---4-4p2--0-------0------0-0---|
|----------------2-2h4---4-2--------|
|-----------------------------------|
|-----------------------------------|

|-------------------------------|
|-----5-------------------------|
|-2h4---4-4p2--0-------0------0-|
|----------------2-2h4---4-2----|
|-------------------------------|
|-------------------------------|

|-------------------------------------------|
|-------------------------------------------|
|-------------------------------------------|
|--2-2-2-2p0-0-0-0--------------------------|
|-------------------4-4-4-4p2-2-2-2p0-------|
|-------------------------------------------|
|-------------------------------------------|

End

|----|
|----|
|-9^-|
|-9^-|
|-7^-|
|----|
Bend down

Email me if you think this is wrong! hoju_10@hotmail.com
Artist- A Perfect Circle
Song- Orestes (Solo)
Tab- Jonathan Bissonnette

Tuning- Db Ab Db Gb Bb Eb

w/delay

|--------------------------------------|
|--------------------------------------|
|-/17-17-17h19-19/14-14-14h15p14h15p14-|
|--------------------------------------|
|--------------------------------------|
|--------------------------------------|

|----------------------------------------|
|----------------------------------------|
|-/17-17-17h19-19--19-19-19^-19^-19^-19^-|
|----------------------------------------|
|----------------------------------------|
|----------------------------------------|
grad. bend up

|--------------------------------------|
|--------------------------------------|
|-/17-17-17h19-19/14-14-14h15p14h15p14-|
|--------------------------------------|
|--------------------------------------|
|--------------------------------------|

|------------|
|------------|
|14~/12-12~--|
|------------|
|------------|
|------------|

Second Part

|-------------------------------|
|-------------------------------|
|-/10-10-10h12-12/7-7-7h8p7h8p7-|
|-------------------------------|
|-------------------------------|
|-------------------------------|

|-----------------------------------------|
|-----------------------------------------|
|-/10-10-10h12-12--12-12-12^-12^-12^-12^--|
|-----------------------------------------|
|-----------------------------------------|
|-----------------------------------------|
grad. bend up

|------------------------------|
|------------------------------|
|-10-10-10h12-12/7-7-7h8p7h8p7-|
|------------------------------|
|------------------------------|
|------------------------------|

|---------|
|---------|
|-7~/5-5~-|
|---------|
|---------|
|---------|
Orestes-A Perfect Circle
Mer De Noms

Gtr 1-3.
C# F# B E G# C#

Gtr 2.(Baritone Gtr)
G# C# F# B# D# G#

Intro: w/ pick and fingers
w/ chorus, delay and reverb

Gtr 1.

e--------------------------------------
b-0--------0--------8--------8---------
g----7--------7--------9--------9------
d-------5--------5--------7--------7---
a-7-----------------8------------------
e--------------------------------------

Fig 1.

e--------------------------------------
b-0--------0--------8--------8---------
g----7--------7--------9--------9------
d-------5--------5--------7--------7---
a-7-----------------8------------------
e--------------------------------------

Verse 1: Fig 1. x8

Chorus:

Gtr 1.

e------------------------------------------------------------
b-0--------0--------0--------0--------0----------------------
g----7--------7--------5--------5----------------------------
d-------5--------5--------7--------7--------0-------0---0----
a-7-----------------5----------------------------------------
e------------------------------------------------------------

Gtr 3. (all harmonics)

e------------------------------------------------------------
b-----------------------------------------------------12-----
g--------------------------------------------12--------------
d------------------------------------------------7-------7---
a------------------------------------------------------------
e------------------------------------------------------------

Gtr 2. (baritone)

e------------------------------------------------------------
b------------------------------------------------------------
g------------------------------------------------------------
d------------------------------------------------------------
a------------------------------------------------------------
e-5------5---5--5----3-----3------3------3----1-----1-----1--

Gtr 1.

e------------------------------------------------------------
b---------------0--------------------------------------------
g-----2------------------------------------------------------
d-0----------------0--0--------------------------------------
a------------------------------------------------------------
e------------------------------------------------------------

Gtr 3. (all harmonics)

e------------------------------------------------------------
b--------------12--------------------------------------------
g---------------------12-------------------------------------
d-7----------------7-----------------------------------------
a------------------------------------------------------------
e------------------------------------------------------------

Gtr 2. (baritone)

e------------------------------------------------------------
b------------------------------------------------------------
g------------------------------------------------------------
d------------------------------------------------------------
a------------------------------------------------------------
e-1----1------1--1----1--1-----------------------------------

Gtr 1.

e------------------------------------------------------------
b-0--------0--------0--------0--------0-------------0--------
g----7--------7--------5--------5-------2-------2---------0--
d-------5--------5--------7--------7--------0----------0-----
a-7-----------------5----------------------------------------
e------------------------------------------------------------

Gtr 3. (all harmonics)

e------------------------------------------------------------
b-----------------------------------------------12-----------
g-----------------------5-------------4----------------------
d-------------------4--------5--------------7---------7------
a------------------------------------------------------------
e------------------------------------------------------------

Gtr 2. (baritone)

e------------------------------------------------------------
b------------------------------------------------------------
g------------------------------------------------------------
d------------------------------------------------------------
a------------------------------------------------------------
e-5-------5----5----3-----3----3---3--1----1------1----------

Play Fig 1. x3, then

e-------------------------------0------
b-0--------0--------8--------8----x----
g----7--------7--------9---------------
d-------5--------5--------7------------
a-7-----------------8------------------
e-----------------------------------1--

Interlude:


Gtr 2.(baritone)

e------------------------------------------------------------
b------------------------------------------------------------
g------------------------------------------------------------
d------------------------------------------------------------
a------------------------------------------------------------
e-5----------51-------1/3---3----3-----5---------5----------

Lead Part:

e----------------------------------------0--0--0--0--0--0--0-0-0-0
b-16----15-13-12-12--13/15-15-15--1510--9-10-10-10-10--8--8-8-8-8
g-----------------------------------------------------------------
d-----------------------------------------------------------------
a-----------------------------------------------------------------
e-----------------------------------------------------------------

Bridge: ...Uh, one more medicated....

e-----------------------------------------------------------------
b------7-----7----7----------------------7-----7-----7------------
g----9-----9----9----9----9---9---9----9---9-9---9-9---9-9--------
d-9---------------------7---7---7---7-----------------------------
a-----------------------------------------------------------------
e-----------------------------------------------------------------

e-----------------------------------------------------------------
b---------------10--------7---7---7----------------------7---7----
g----9----------11---9------9---9---9----9---9---9-9---9---9------
d-7-----7--5----9---------------------7---7---7---7--------------
a-----------------------------------------------------------------
e-----------------------------------------------------------------

e-----------------0-0--0--0-0------0----0-----0--------------
b-----7-------7h8-8-8--8--8/10-----10---10----10-------------
g-9-------9--------------------------------------------------
d------------------------------------------------------------
a------------------------------------------------------------
e------------------------------------------------------------

Guitar Solo: w/ Delay

e-------0--0-0-----------------------------------0--0-------------
b-------0--0-0---0-------------------------------0--0---0---------
g-2/4-4-4--4-42-0-----------0---------0-0-2/4-4-4--42-0---------
d-------------------0-0-2/4------7--7-----------------------0-0---
a-----------------------------------------------------------------
e-----------------------------------------------------------------

e----------------------------0--0-0-------------------------------
b----------------------------0--0-0-------------------------------
g-------0----------0-2-2/4-4-4--4-42-0-----------0------0--------
d-2/4-4----4-2--0------------------------0-0-2/4------7-----5-5/7-
a-----------------------------------------------------------------
e-----------------------------------------------------------------

e-----------------------------------------------------------------
b-----------------------------------------------------------------
g--------0------------0-----0--------0----------------------------
d-75--5-----5-54--4-------4-42--2----0----0--------------------
a-----------------------------------------5-------5/7---7~~~~~~~~-
e-----------------------------------------------------------------

Interlude: Play Fig 1.

Guitar Solo #2

e-0--0---0--0--0--0--0--0--0---0---0---0-----0-----0--0--0--0-----
b-15-15--15-15-15/17-17-17-17--12--12--12h13-12h13-12-12-12/15----
g-----------------------------------------------------------------
d-----------------------------------------------------------------
a-----------------------------------------------------------------
e-----------------------------------------------------------------

e-0---0--0--0--0-----0--0--0--0--0---0---0---0---0-------0--0-0---
b-15--15-15-15-15/17-17-17-17-17-17b-17b-17b-17b-17b-17b-17---6-/-
g-----------------------------------------------------------------
d-----------------------------------------------------------------
a-----------------------------------------------------------------
e-----------------------------------------------------------------

e-0----0--0---0--0--0--0--0----0--0----0-----0-----0----0----0----
b-15---15-15--15/17-17-17-17--12-12---12h13-12h13-12---12---12---
g-----------------------------------------------------------------
d-----------------------------------------------------------------
a-----------------------------------------------------------------
e-----------------------------------------------------------------

e-0--0---0---0----0------0--------0---0---------------------------
b-1210------10---10-----10-------10--10------------2----/--------
g---------------------------------------------------0-------------
d-----------------------------------------------------------------
a-----------------------------------------------------------------
e-----------------------------------------------------------------

w/ lighter distortion.

e-0---0---0-0-0-0---0---0-----0--0--0---0---0--0-0-0--0-0-0-0-0---
b-8---8-----8-8/10--10--10---5--5--5h6-5h6-5--5/8-8--8---8-8/10--
g-0---------------------------------------------------------------
d-----------------------------------------------------------------
a-----------------------------------------------------------------
e-----------------------------------------------------------------

e-0---0-----0---0---0----0-0---0--0-0-0-0-0--0---0----0---0---0---
b-10b-10b---10b-10b-10b--3/8---8----8-8-8/10-10--10---5---5---5---
g-----------------------------------------------------------------
d-----------------------------------------------------------------
a-----------------------------------------------------------------
e-----------------------------------------------------------------

e-0---0---0--0---0----0-------------------------------------------
b-5h6-5h6-5--5---5p3--3---3----3---3------------------------------
g-----------------------------------------------------------------
d-----------------------------------------------------------------
a-----------------------------------------------------------------
e-----------------------------------------------------------------

Chorus: ... Gotta, cut away, clear away....
(im not putting the lead over this part)

e-----------------------------------------------------------------
b-----------------------------------------------------------------
g-9--9-9--9--9-97--7---7-7--75-5---5---5-5---5-5-----5-5--------
d-9--9-9--9--9-97--7---7-7--75-5---5---5-5---5-5-----5-5-0-0----
a-7--7-7--7--7-75--5---5-5--53-3---3---3-3---3-3-----3-3-0-0----
e-----------------------------------------------------------------

e-----------------------------------------------------------------
b-----------------------------------------------------------------
g-9--9-9--9/12-12-12--127---7---7-7-7---7--5---5-5---5-5-5-5-----
d-9--9-9--9/12-12-12--127---7---7-7-7---7--5---5-5---5-5-5-5--0--
a-7--7-7--7/10-10-10--105---5---5-5-5---5--3---3-3---3-3-3-3--0--
e-----------------------------------------------------------------

e-----------------------------------------------------------------
b-----------------------------------------------------------------
g-9--9-9--9/12-12-12--7---7--7-7-12-12-12--5---5-5-5---5-5---5----
d-9--9-9--9/12-12-12--7---7--7-7-12-12-12--5---5-5-5---5-5---5-0--
a-7--7-7--7/10-10-10--5---5--5-5-10-10-10--3---3-3-3---3-3---3-0--
e-----------------------------------------------------------------

e-----------------------------------------------------------------
b-----------------------------------------------------------------
g-9--9-9--9/12-12-12--7---7--7-7-12-12-12--5---5-5-5---5-5---5----
d-9--9-9--9/12-12-12--7---7--7-7-12-12-12--5---5-5-5---5-5---5-0--
a-7--7-7--7/10-10-10--5---5--5-5-10-10-10--3---3-3-3---3-3---3-0--
e-----------------------------------------------------------------

Damn thats a long ass song

trevor jones
timmy91199@yahoo.ca