A Perfect Circle — Sleeping Beauty

На этой странице Вы можете ознакомиться с 2 версиями подбора аккордов для гитары к песне "Sleeping Beauty" группы (исполнителя) "A Perfect Circle".

Sleeping Beauty-A Perfect Circle
Mer De Noms

C# F# B E G# C#

* = pm

Intro:

6/4 time

e--------------------------
b--------------------------
g--------------------------
d---0-----0-----0-----0----
a-4---4-4---0-2-----2---0--
e--------------------------

7/4 time 6/4 time

e---------------------------------- --------------------------
b---------------------------------- --------------------------
g---------------------------------- --------------------------
d---------------------------------- ---0-----0-----0-----0---- x3
a-9-9-11p9-11p9-9-11p9-9-11p9-11-- -4---4-4---0-2-----2---0--
e-0-0--0----0---0--0---0-0-----0--- --------------------------
* * * *

Verse:

7/4 time 6/4 time

Riff A: gtr. 1 (pm throughout)

e---------------------------------- --------------------------
b---------------------------------- --------------------------
g---------------------------------- --------------------------
d---------------------------------- ---0-----0-----0-----0----
a-9-9-11-9-11-9-9-11-9-9-11-9-11-9- -4---4-4---0-2-----2---0--
e-0-0--0-0--0-0-0--0-0-0--0-0--0-0- --------------------------

gtr 2. w/ delay


e---------------------------------- --------------------------
b---------------------------------- --------------------------
g-13--13---13-14---16-------------- --------------------------
d--x---x----x--x----x-------------- --(fdbk)------------------
a-11--11---11-12---14-------------- --------------------------
e---------------------------------- --------------------------

gtr. 1

e---------------------------------- --------------------------
b---------------------------------- --------------------------
g---------------------------------- --------------------------
d---------------------------------- ---0-----0-----0-----0----
a-9-9-11-9-11-9-9-11-9-9-11-9-11-9- -4---4-4---0-2-----2---0--
e-0-0--0-0--0-0-0--0-0-0--0-0--0-0- --------------------------

gtr 2.


e---------------------------------- --------------------------
b---------------------------------- --------------------------
g-13--13-13-1311--9---------------- -11-----------7-----------
d--x---x--x----x--x---------------- --x-----------x-----------
a-11--11-11-11-9--7---------------- --9-----------5-----------
e---------------------------------- --------------------------

gtr. 1

e---------------------------------- --------------------------
b---------------------------------- --------------------------
g---------------------------------- --------------------------
d---------------------------------- ---0-----0-----0-----0----
a-9-9-11-9-11-9-9-11-9-9-11-9-11-9- -4---4-4---0-2-----2---0--
e-0-0--0-0--0-0-0--0-0-0--0-0--0-0- --------------------------

gtr 2.


e---------------------------------- --------------------------
b---------------------------------- --------------------------
g-13--13---13-14---16-------------- ----------------------16/-
d--x---x----x--x----x-------------- --(fdbk)---------------x--
a-11--11---11-12---14-------------- ----------------------14/-
e---------------------------------- --------------------------

gtr. 1

e---------------------------------- --------------------------
b---------------------------------- --------------------------
g---------------------------------- --------------------------
d---------------------------------- ---0-----0-----0-----0----
a-9-9-11-9-11-9-9-11-9-9-11-9-11-9- -4---4-4---0-2-----2---0--
e-0-0--0-0--0-0-0--0-0-0--0-0--0-0- --------------------------

gtr. 2

e---------------------------------- --------------------------
b---------------------------------- --------------------------
g-19------------16----------16/19- ---1916--16--------------
d--x--------------x-----------x--x- ----x--x---x--------------
a-17------------14----------14/17- ---1714--14--------------
e---------------------------------- --------------------------

Interlude:


3/4 time

e-------------------------------------------------------
b-------------------------------------------------------
g-------------------------------------------------------
d-6---6-6--6/7--7/9--9-9--9/12--12-----129--9-----96--
a-x---x-x--x-x--x-x--x-x--x--x---x------x-x--x-----x-x--
e-4---4-4--4/5--5/7--7-7--7/10--10-----107--7-----74--

e-------------------------------------------------------
b-------------------------------------------------------
g-------------------------------------------------------
d-6---6-6--6/7--7/9--9-9--9/12--12---129--9--/--21-----
a-x---x-x--x-x--x-x--x-x--x--x---x----x-x--x------x-----
e-4---4-4--4/5--5/7--7-7--7/10--10---107--7--/--19-0-0-

Pre Chorus:

Riff B:

e-------------------------------------------------------
b-------------------------------------------------------
g-------------------------------------------------------
d-6---6-6--6/7--7/9--9-9--9/12--12-----129--9-----96--
a-x---x-x--x-x--x-x--x-x--x--x---x------x-x--x-----x-x--
e-4---4-4--4/5--5/7--7-7--7/10--10-----107--7-----74--

Riff C:

e-------------------------------------------------------
b-------------------------------------------------------
g-------------------------------------------------------
d-6---6-6--6/7--7/9--9-9--9/12--12--12-12/14-9--9-9-9---
a-x---x-x--x-x--x-x--x-x--x--x---x---x--x--x-x--x-x-x---
e-4---4-4--4/5--5/7--7-7--7/10--10--10-10/12-7--7-7-7-0-

Chorus:

4/4 time

e-------------------------------------------
b-------------------------------------------
g-------------------------------------------
d-------------------------------------------
a-9-9-11p9-11p9-9-11p9-9-11p9-11p9-9---0-0--
e-0-0--0-0--0-0-0--0-0-0--0-0--0-0-0--------
* * * * *

e---------------------------------
b---------------------------------
g---------------------------------
d---0-----0-------0-----0---------
a-4---4-4---0-0-2---2-2-----2-2-0-
e---------------------------------

Verse:

pm throughout
e-------------------------------------------
b-------------------------------------------
g-------------------------------------------
d-------------------------------------------
a-9-9-11-9-11-9-9-11-9-9-11-9-11-9-9---0-0--
e-0-0--0-0--0-0-0--0-0-0--0-0--0-0-0--------

e---------------------------------
b---------------------------------
g---------------------------------
d---0-----0-------0-----0---------
a-4---4-4---0-0-2---2-2-----2-2-0-
e---------------------------------

Interlude:

e-0----0----0--0----0----0-----0--0---0----0--0---0--
b-x----x----x--x----x----x-----x--x---x----x--x---x--
g-6----6----6--6----6----6-----6--6---9----9--9---9--
d-x----x----x--x----x----x-----x--x---x----x--x---x--
a-4----4----4--4----4----4-----4--4---7----7--7---7--
e-5----5----5--5----5----5-----5--5---8----8--8---8--

e-0----0----0--0----0----0--0----0---0---0----0---0--
b-x----x----x--x----x----x--x----x---x---x----x---x--
g-6----6----6--6----6----6--64--4---4--11---11--11--
d-x----x----x--x----x----x--x----x---x---x----x---x--
a-4----4----4--4----4----4--42--2---2---9----9---9--
e-5----5----5--5----5----5--53--3---3--10---10--10--

Solo: w/ leslie and octaver (up one oct.)

A

e-------------------------------------------------
b-9-9--9-9--9-12--9-9--9-9--9-12--9-9--9-9--9-12--
g-------------------------------------------------
d-------------------------------------------------
a-------------------------------------------------
e-------------------------------------------------

C A

e-9-----9---------------------------------------------
b---12----12--10-12--9-9--9-9--9-12--9-9--9-12--9-12--
g-----------------------------------------------------
d-----------------------------------------------------
a-----------------------------------------------------
e-----------------------------------------------------

G D A

e---------------------9-9--9---------------------------
b-9--------------------------12--10-12--9-9--9-9--9-12-
g---11--11-11--11-11-----------------------------------
d------------------------------------------------------
a------------------------------------------------------
e------------------------------------------------------

A C

e-----------------------------------------9--9-9-9--------------
b-9---9-9-9-10--9-10--9---9-9-9-12--9-12-----------12-12--10-12-
g---------------------------------------------------------------
d---------------------------------------------------------------
a---------------------------------------------------------------
e---------------------------------------------------------------

A G6 Dadd9

w/ delay

e--------10--9----------------------------------------------------
b-9-9--9-------12--10-9----9-----9--10----------------------------
g-----------------------11----11-------11--11-11--11--11-9--9-9---
d---------------------------------------------------------------11
a-----------------------------------------------------------------
e-----------------------------------------------------------------


that’s about all

trevor jones
timmy91199@yahoo.ca
!!! South Wales !!!Tuning: C# F# B E G# C# 

Intro
|---------------------------------------------------|
|---------------------------------------------------|
|---------------------------------------------------|
|------0---0---0---0--------------------------------|
|-4--4---4---2---2-------11p9-11p9--11p9--11p9-11p9-|
|--------------------0-0-0--0--0-0---0-0---0-0--0-0-|

Verse

Gtr.1(Troy)
|-------------------------------------------------------
|-------------------------------------------------------
|-------------------------------------------------------
|-------------------------------------------------------
|-11-11-11-11-11-11-11-11-11-11-11-11-11-11-11-11-11-11-
|0--0--0--0--0--0--0--9--9--9--9--9--9--9--9--9--9--9--9
p.m.................................................................

|------------------|
|------------------|
|------------------|
|------------------|
|-9-9-9-9-9-9-9-9--|
|-7-7-7-7-7-7-7-7--|
p.m.............

Gtr.2(Billy) Prt1

|-------------------------------------------------
|-------------------------------------------------
|----------9*-9*----------------------------------
|--------9~~--------------------------------------
|11-11/12--------11-11/12-7---------11-11/12------
|-------------------------------------------------

Prt2
|---------------------------------------------------
|---------------------------------------------------
|---------------------------------------------------
|---------------------------9~~---12~-9~-12~-11-9--
|---------------------------------------------------
|---------------------------------------------------


Bridge

|----------------------------------|
|----------------------------------|
|----------------------------------|
|-6-6-6/7-7/9-9-9/12-12-12-9--9-9--|
|-x-x-x-x-x-x-x-x--x--x--x-x--x-x--|
|-4-4-4/5-5/7-7-7/10-10-10-7--7-7--|

Chorus

|---------------------------------------------------|
|---------------------------------------------------|
|---------------------------------------------------|
|-------------------------------------0---0---0---0-|
|-----11p9-11p9--11p9--11p9-11p9-4-4---4---2---2----|
|-0-0-0--0--0-0---0-0---0-0--0-0--------------------|

Bridge 2

Gtr.1(Troy)
|-----------------------------------|
|-----------------------------------|
|-----------------------------------|
|-6-6-6/7-7/9-9-9/12--12-12-9--9-9--|
|-x-x-x-x-x-x-x-x--x---x--x-x--x-x--|
|-4-4-4/5-5/7-7-7/10--10-10-7--7-7--|

Gtr.2(Billy)
|-------------------------------------------------|
|-------------------------------------------------|
|-13-13-13-13-13-13-13-13-11-11-11-11-11-11-11-11-|
|--x--x--x--x--x--x--x--x--x--x--x--x--x--x--x--x-|
|-11-11-11-11-11-11-11-11--9--9--9--9--9--9--9--9-|
|-------------------------------------------------|

Interlude
Gtr.1(Troy)
|-------------------------------------------------|
|-------0--0--------0--0-------0--0---0---0---0---|
|-6-----6h-7--6-----6h-7--6----6--6/--9---9---9 -|
|-0--0--0--0--0--0--0--0--0--0-0--0---0---0---0---|
|-7--7--7--7--7--7--7--7--7--7-7--7/--10--10--10-|
|-5--5--5--5--5--5--5--5--5--5-5--5/--8---8---8 -|

|-----------------------------------------------|
|----0--0-----0--0--0--0--0--0--0--0---0--------|
|-6--6h-7--6--6--6--6-4--4--4/-11-11--11------|
|-0--0--0--0--0--0--0--0--0--0--0--0---0----0---|
|-7--7--7--7--7--7--7--7-5--5--5/-12--12---12-|
|-5--5--5--5--5--5--5--5-3--3--3/-10--10---10-|

Solo

Gtr.1(Billy)
|-------------------------------------|
|-------------------------------------|
|-6--6-6h7-6--6-6-6h7-6--6-6-7h9-9-9--|
|-------------------------------------|
|-------------------------------------|
|-------------------------------------|

|-------------------------------------|
|-------------------------------------|
|-6--6-6h7-6--6-6-6h7-63-3/11-11-11---|
|-------------------------------------|
|-------------------------------------|
|-------------------------------------|x2

|-----------------------------------------------------|
|-----------------------------------------------------|
|-13--13-13-16-13--13-13-16-13--13--13-16-18-16-14-16-|
|-----------------------------------------------------|
|-----------------------------------------------------|
|-----------------------------------------------------|

|-----------------------------------------------|
|-----------------------------------------------|
|-13--13-13-16-13--13-13-16-139-9/18-16-14-16---|
|-----------------------------------------------|
|-----------------------------------------------|
|-----------------------------------------------|

|-----------------------------------------------------|
|-----------------------------------------------------|
|-13--13-13-16-13--13-13-16-13--13--13-16-18-16-14-16-|
|-----------------------------------------------------|
|-----------------------------------------------------|
|-----------------------------------------------------|

|------------------------------------------|
|------------------------------------------|
|-13-13-13-16-13-11-13-11-9-11-9p7-5-7-5-4-|
|------------------------------------------|
|------------------------------------------|
|------------------------------------------|

Outro

|----------------------------------------------------|
|----------------------------------------------------|
|----------------------------------------------------|
|--------------------------------------0---0---0---0-|
|-----11p9-11p9--11p9--11p9-11p-9-4-4---4---2---2----|
|-0-0-0--0--0-0---0-0---0-0--0--0--------------------|