A Perfect Circle — The Hollow

На этой странице Вы можете ознакомиться с 4 версиями подбора аккордов для гитары к песне "The Hollow" группы (исполнителя) "A Perfect Circle".

The Hollow / A Perfect Circle
-----------------------------
( Am G Am C Em )
Run desire run Am Em C G
Sexual being
Run him like a blade
To and through the heart
No conscience
One Motive
Cater to the hollow

Screaming feed me here Am C Em
Fill me up again Am G
Temporarily pacify this hungering Am G C Am G

So grow Am Em C G
Libido throw
Dominoes of indiscretions down
Falling all around
In cycles
In circles
Constantly consuming
Conquer and devour

Cause it's time to bring the fire down Am G C
Bridle all this indiscretion Am G Am C Em
Long enough to edify
And permanently fill this hollow

Screaming feed me here Am C Em
Fill me up again Am G
Temporarily pacifying Am G C Am G

Feed me here
Fill me up again
Temporarily pacifying
A Perfect Circle
The Hollow
Tabbed by Pich

Tuning- C# F# B E G# C#

Intro

Gtr.1

|--------------------------------------|
|--------------------------------------|
|--------------------------------------|
|-11-11-11-11/9-9-9-9--2-2-2-2-2h4-4p2-|
|-11-11-11-11/9-9-9-9--2-2-2-2-2h4-4p2-|
|-9--9--9--9-/7-7-7-7--0-0-0-0-0h2-2p0-|

Gtr.2

|-------------------------------------------|
|-------------------------------------------|
|-13-13-13-13-13/16-16-16-16-16-16-16-16-16-|
|--x--x--x--x--x--x--x--x--x--x--x--x--x--x-|
|-11-11-11-11-11/14-14-14-14-14-14-14-14-14-|
|-------------------------------------------|

|------------------------------------------|
|------------------------------------------|
|-13-13-13-13-13-13-13-13-13-13/9-9-9-9-9--|
|--x--x--x--x--x--x--x--x--x--x-x-x-x-x-x--|
|-11-11-11-11-11-11-11-11-11-11/7-7-7-7-7--|
|------------------------------------------|

|---------------------------------------------|
|---------------------------------------------|
|-13-13-13-13-13/16-16-16-16-16-/18-18-16-16-|
|--x--x--x--x--x--x--x--x--x--x---x--x---x--x-|
|-11-11-11-11-11/14-14-14-14-14-/16-16-14-14-|
|---------------------------------------------|

|-------------------------------------------|
|-------------------------------------------|
|-13-13-13-13-13-13-13-13-13-13-13-13-13-13-|
|--x--x--x--x--x--x--x--x--x--x--x--x--x--x-|
|-11-11-11-11-11-11-11-11-11-11-11-11-11-11-|
|-------------------------------------------|

Verse

|---------------------|
|---------------19/17-|
|-----------16--------|
|-11-11--14-----------|
|-11-11---------------|
|-9--9----------------|

*They use some sort of pedal

Chorus

Gtr.1

|---------------------------------|
|---------------------------------|
|---------------------------------|
|-7-7-7-7-6-6-6-6-2-2-2-2-2-2-2-2-|
|-7-7-7-7-6-6-6-6-2-2-2-2-2-2-2-2-|
|-5-5-5-5-4-4-4-4-0-0-0-0-0-0-0-0-|

|--------------------------------------------------------|
|----19p17/16h17p16/14/12--------------------------------|
|-16---------------------------13~----16----16-16/14-14--|
|-------------------------14-13----14----14--------------|
|--------------------------------------------------------|
|--------------------------------------------------------|
digital delay, this whole part is delayed

Verse 2

Gtr.1

|--------------------------------------|
|--------------------------------------|
|--------------------------------------|
|-11-11-11-11/9-9-9-9--2-2-2-2-2h4-4p2-|
|-11-11-11-11/9-9-9-9--2-2-2-2-2h4-4p2-|
|-9--9--9--9-/7-7-7-7--0-0-0-0-0h2-2p0-|

p.m......
Gtr.2

|---------------------|
|---------------19/17-|
|-----------16--------|
|-11-11--14-----------|
|-11-11---------------|
|-9--9----------------|

Interlude

Gtr.1

|---------------------------------------------|
|---------------------------------------------|
|---------------------------------------------|
|-2--6/8-8-8-86-6-6-6--2-2/9-9-9/4-4-4-4-6---|
|-2---------------------2-2/x-x-x-x-x-x-x-x---|
|-0---------------------0-0/7-7-7/2-2-2-2/4-0-|

Gtr.2

|---------------------------------------------------------------------|
|-------121212121212/14-14-14-14-14/16-16-16-16-16-16-16-16-16-16-16/-|
|--------x-x-x-x-x-x--x--x--x--x--x--x--x--x--x--x--x--x--x--x--x--x--|
|--9-9-9-9-9-9-9-9-9/11-11-11-11-11/13-13-13-13-13-13-13-13-13-13-13/-|
|---------------------------------------------------------------------|
|---------------------------------------------------------------------|

|---------------------------------------------|
|19-19-19-19-19-19-19-19-19/2114-14-14-14-14-|
|-x--x--x--x--x--x--x--x--x--x--x--x--x--x--x-|
|16-16-16-16-16-16-16-16-16/1811-11-11-11-11-|
|---------------------------------------------|
|---------------------------------------------|

Chorus 2

|-----------------------------------------|
|-----------------------------------------|
|-----------------------------------------|
|-11-11-11-11-9-9-9-9-9-4-4-4-4-2-2-2-2-2-|
|-11-11-11-11-9-9-9-9-9-4-4-4-4-2-2-2-2-2-|
|-9--9--9--9--7-7-7-7-7-2-2-2-2-0-0-0-0-0-|

Bridge

Gtr.1

|--------------------------------------------------------------|
|--------------------------------------------------------------|
|--------------------------------------------------------------|
|-11-11-11-11-11-11/13-13-13-13-13-13/14-14-14-14-14-14--7-7-7-|
|-11-11-11-11-11-11/13-13-13-13-13-13/14-14-14-14-14-14--7-7-7-|
|-9--9--9--9--9--9-/11-11-11-11-11-11/12-12-12-12-12-12--5-5-5-|
p.m.............. p.m.............. p.m..............

Gtr.2

|-------------------------------------------------------------|
|-------------------------------------------------------------|
|18-18-18/16-16/11-11-11-11/1313131313/9-9-9/11/8-8-8/(9)/(6)-|
|-x--x--x--x--x--x--x--x--x--x-x-x-x-x-x-x-x--x-x-x-x--x---x--|
|16-16-16/14-14/ 9--9--9--9/1111111111/7-7-7/ 9/6-6-6/(7)/(4)-|
|-------------------------------------------------------------|

Chorus 3/Outro

Gtr.1

|---------------------------------|
|---------------------------------|
|---------------------------------|
|-7-7-7-7-6-6-6-6-2-2-2-2-2-2-2-2-|
|-7-7-7-7-6-6-6-6-2-2-2-2-2-2-2-2-|
|-5-5-5-5-4-4-4-4-0-0-0-0-0-0-0-0-|

Gtr.2- Same delayed effects as first Chorus

End


Email me if you think this is wrong! hoju_10@hotmail.com
A Perfect Circle, The Hollow.
Tabbed by Neal, Petro525@aol.com.

Tabbed by Neal (Petro525@aol.com)
Tuning- C# F# B E G# C#

Intro

Gtr.2
|-----------------------------------|
|-----------------------------------|
|-----------------------------------|
|-11-11-11-119-9-9-9--4-4-4-4-2--2-|
|-11-11-11-119-9-9-9--4-4-4-4-2--2-|
|-9--9--9--9-7-7-7-7--2-2-2-2-0--0-|
palm mute * *
|-----------------------------------|
|-----------------------------------|
|-----------------------------------|
|-11-11-11-119-9-9-9--4-4-2-2-9--9-|
|-11-11-11-119-9-9-9--4-4-2-2-9--9-|
|-9--9--9--9-7-7-7-7--2-2-0-0-7--7-|
palm mute * *
Gtr.1
|-------------------------------------------|
|-------------------------------------------|
|-13-13-13-13-13/16-16-16-16-16-16-16-16-16-|
|--x--x--x--x--x--x--x--x--x--x--x--x--x--x-|
|-11-11-11-11-11/14-14-14-14-14-14-14-14-14-|
|-------------------------------------------|

|------------------------------------------|
|------------------------------------------|
|-13-13-13-13-13-13-13-13-13-13/9-9-9-9-9--|
|--x--x--x--x--x--x--x--x--x--x-x-x-x-x-x--|
|-11-11-11-11-11-11-11-11-11-11/7-7-7-7-7--|
|------------------------------------------|

|---------------------------------------------|
|---------------------------------------------|
|-13-13-13-13-13/16-16-16-16-16-/18-18-16-16-|
|--x--x--x--x--x--x--x--x--x--x---x--x---x--x-|
|-11-11-11-11-11/14-14-14-14-14-/16-16-14-14-|
|---------------------------------------------|

|-------------------------------------------|
|-------------------------------------------|
|-13-13-13-13-13-13-13-13-13-13-13-13-13-13-|
|--x--x--x--x--x--x--x--x--x--x--x--x--x--x-|
|-11-11-11-11-11-11-11-11-11-11-11-11-11-11-|
|-------------------------------------------|
Verse(i dont think this is exact, but it’ll do)
|-------------------------------------------|
|--------------------17h19p17---------------|
|--------------16-18----------18-16---------|
|-11-11--16-18---------------------18-16----|
|-11-11-------------------------------------|
|-9--9--------------------------------------|
*They use some sort of pedal (if you have a whammy, try setting it to harmonize down a second...it sounds kinda like it)

Chorus
guitar 2:
|---------------------------------|
|---------------------------------|
|---------------------------------|
|-7-7-7-7-6-6-6-6-2-2-2-2-2-9-9-9-|
|-7-7-7-7-6-6-6-6-2-2-2-2-2-9-9-9-|
|-5-5-5-5-4-4-4-4-0-0-0-0-0-7-7-7-|

guitar 1:
|--16-19-16---------------------------------------------------|
|-----------16-15-16------------------------------------------|
|--------------------18-16------------------13----13-13-------|
|--------------------------18-16-13--14--16----11-------11-11-|
|-------------------------------------------------------------|
|-------------------------------------------------------------|

|--------------------------------------------------------------|
|--------------------------------------------------------------|
|-13/16-16-14---13-----13-------16--16/1814---13----13--11-11-|
|-------------------11----13h14-------------------11------9--9-|
|--------------------------------------------------------------|
|--------------------------------------------------------------|
this whole part is delayed

Verse 2
Gtr.2
|-----------------------------------|
|-----------------------------------|
|-----------------------------------|
|-11-11-11-119-9-9-9--4-4-4-4-2--2-|
|-11-11-11-119-9-9-9--4-4-4-4-2--2-|
|-9--9--9--9-7-7-7-7--2-2-2-2-0--0-|
palm mute * *
|-----------------------------------|
|-----------------------------------|
|-----------------------------------|
|-11-11-11-119-9-9-9--4-4-2-2-9--9-|
|-11-11-11-119-9-9-9--4-4-2-2-9--9-|
|-9--9--9--9-7-7-7-7--2-2-0-0-7--7-|
palm mute * *
Gtr.1
|-------------------------------------------|
|--------------------17h19p17---------------|
|--------------16-18----------18-16---------|
|-11-11--16-18---------------------18-16----|
|-11-11-------------------------------------|
|-9--9--------------------------------------|
*this time no effects

Interlude

Gtr.1

|---------------------------------------------|
|---------------------------------------------|
|---------------------------------------------|
|-2--6/8-8-8-86-6-6-6--2-2/9-9-9/4-4-4-4-6---|
|---------------------------------------------|
|-0--4/6-6-6-64-4-4-4--0-0/7-7-7/2-2-2-2/4-0-|

Gtr.2

|----------------------------------------------------------------|
|--121212121212/14-14-14-14-14/16-16-16-16-16-16-16-16-16-16-16/-|
|----------------------------------------------------------------|
|---9-9-9-9-9-9/11-11-11-11-11/13-13-13-13-13-13-13-13-13-13-13/-|
|----------------------------------------------------------------|
|----------------------------------------------------------------|

|---------------------------------------------|
|19-19-19-19-19-19-19-19-19/2114-14-14-14-14-|
|---------------------------------------------|
|16-16-16-16-16-16-16-16-16/1811-11-11-11-11-|
|---------------------------------------------|
|---------------------------------------------|

Chorus 2
Gtr.2
|---------------------------------------|
|---------------------------------------|
|---------------------------------------|
|-11-11-11-11-9-9-9-9-4-4-4-4-2-2-2-2-2-|
|-11-11-11-11-9-9-9-9-4-4-4-4-2-2-2-2-2-|
|--9--9--9--9-7-7-7-7-2-2-2-2-0-0-0-0-0-|

Gtr.1
|--------------------------------0----|
|-------14-------12-------7------0----|
|-------13-------11-------6-----------|
|-11-11-11-11-9-9-9-9-4-4-4-4-2-------|
|-11-11-11-11-9-9-9-9-4-4-4-4-2-------|
|-----------------------------0-------|



Bridge

Gtr.1

|----------------------------------------------------------------|
|----------------------------------------------------------------|
|----------------------------------------------------------------|
|-11-11-11-11-11-11/13-13-13-13-13-13/14-14-14-14-14-14--7-7-7-11|
|-11-11-11-11-11-11/13-13-13-13-13-13/14-14-14-14-14-14--7-7-7-11|
|-9--9--9--9--9--9-/11-11-11-11-11-11/12-12-12-12-12-12--5-5-5--9|
p.m.............. p.m.............. p.m..............

Gtr.2

|-------------------------------------------------------------|
|-------------------------------------------------------------|
|18-18-18/16-16/11-11-11-11/1313131313/9-9-9/11/8-8-8/(9)/(6)-|
|-x--x--x--x--x--x--x--x--x--x-x-x-x-x-x-x-x--x-x-x-x--x---x--|
|16-16-16/14-14/ 9--9--9--9/1111111111/7-7-7/ 9/6-6-6/(7)/(4)-|
|-------------------------------------------------------------|

Chorus 3/Outro
guitar 2:
|---------------------------------|
|---------------------------------|
|---------------------------------|
|-7-7-7-7-6-6-6-6-2-2-2-2-2-9-9-9-|
|-7-7-7-7-6-6-6-6-2-2-2-2-2-9-9-9-|
|-5-5-5-5-4-4-4-4-0-0-0-0-0-7-7-7-|

guitar 1:
|--16-19-16---------------------------------------------------|
|-----------16-15-16------------------------------------------|
|--------------------18-16------------------13----13-13-------|
|--------------------------18-16-13--14--16----11-------11-11-|
|-------------------------------------------------------------|
|-------------------------------------------------------------|

|--------------------------------------------------------------|
|--------------------------------------------------------------|
|-13/16-16-14---13-----13-------16--16/1814---13----13--11-11-|
|-------------------11----13h14-------------------11------9--9-|
|--------------------------------------------------------------|
|--------------------------------------------------------------|
this whole part is delayed

:: Ultimate Guitar Archive ::
http://www.ultimate-guitar.com
The Hollow-A Perfect Circle
Mer De Noms

tuned down: C# F# B E G# C#


gtr 1 w/ delay

e-----------------------------------------------------------------
b-9-----9-9-9-912-1212121212-121212-1212-7/9--9-9---9-9--9--------
g-x-----x-x-x-x-x--x-x-x-x-x--x-x-x--x-x-x-x--x-x---x-x--x--------
d-6-----6-6-6-6/9--9-9-9-9-9--9-9-9--9-9-4/6--6-6---6-6--6--------
a-----------------------------------------------------------------
e-----------------------------------------------------------------

gtr 2 fig 1.

e-----------------------------------------------------------------
b-----------------------------------------------------------------
g-----------------------------------------------------------------
d-----------------------------------------------------------------
a11-11-x119-9--9-9-x-x-4--4-x-x-2------411--11119--9-x-x-2-2---
e-9--9-x-97-7--7-7-x-x-2--2-x-x-0--2p0-2/9---9-97--7-x-x-0-0---

gtr 1. w/ delay

e-----------------------------------------------------------------
b-5--5-5/9-9---9-9-9-9111111-11111111/13-1311--5---9--9-9-9--9----
g-x--x-x-x-x---x-x-x-x-x-x-x--x-x-x-x-x--x--x--x---x--x-x-x--x----
d-2--2-2/6-6---6-6-6-6/9-9-9--9-9-9-9/11-11-9--2---6--6-6-6--6----
a-----------------------------------------------------------------
e-----------------------------------------------------------------

gtr 2.

e-----------------------------------------------------------------
b-----------------------------------------------------------------
g-----------------------------------------------------------------
d-----------------------------------------------------------------
a-x-x-9--9--911-x11119-9--9--x-x-4--4--4------4---411-11119-9---
e-x-x-7--7--7/9-x-9-97-7--7--x-x-2--2--2--0-0-2p0-2/9--9-97-7---

gtr 1/ w/ delay

e------------------------
b-9--9----9-9--9--9------
g-x--x----x-x--x--x------
d-6--6----6-6--6--6------
a------------------------
e------------------------

gtr 2.

e------------------------
b------------------------
g------------------------
d------------------------
a-x-x-2--2--x-x-9--9-----
e-x-x-0--0--x-x-7--7-----

verse 1 x4 riff a w/ ring modulator ...run, desire,
run.....

e-------------7-----------------------7---------------
b---------5-7---5-4---------------5-7---5-4-----------
g-------6-----------------------6---------------------
d-------------------6------------------------6--------
a-4-4-4---------------7-6-4-4-4----------------7-6----
e-----------------------------------------------------

chorus:( gtrs not lined up )

gtr 1 w/ delay

e-16-19-16--------------------------------------------------------
b----------16-17-16-----------------------------------------------
g-------------------16--------------------------------------------
d----------------------18------------------------16---18----------
a-------------------------19-19-18-18-18-18--19-------------------
e-----------------------------------------------------------------

gtr 2.

e-----------------------------------------------------------------
b-----------------------------------------------------------------
g-----------------------------------------------------------------
d-----------------------------------------------------------------
a-7---7--7-6---6-6-6-2---7-7---2-4/7--7-7-6-6--6--2-2-2-x-x-9-9-2-
e-5---5--5-4---4-4-4-0-----------2/5--5-5-4-4--4--0-0-0-x-x-7-7-0-

gtr 1. w/ delay

e-----------------------------------------------------------------
b-----------------------------------------------------------------
g-----13--13-13------------------16-16-14--13--------13-----------
d-11---------11--11-11-11/14-14---------------11--11-11--11-11----
a-----------------------------------------------------------------
e-----------------------------------------------------------------

gtr 2.

e-----------------------------------------------------------------
b-----------------------------------------------------------------
g-----------------------------------------------------------------
d-----------------------------------------------------------------
a-7---7--7-6--6-6-6-2--7-7--2--4/7--7-7-6--6-6-6/9--9-9---9-------
e-5---5--5-4--4-4-4-0----------2/5--5-5-4--4-4-4/7--7-7---7-------

gtr 1. w/ delay

e-----------------------------------------------------------------
b-----------------------------------------------------------------
g-----------16-16-16--16/18-----------13--13-13-------------------
d-11/14-14------------------11-11--11-----------11--11-11/13--13--
a-----------------------------------------------------------------
e-----------------------------------------------------------------

verse 2 w/ fig 1.

riff c x4

e--------------14--------------------------14---------------------
b-----------12----12--------------------12----12------------------
g---------9----------9----------------9----------9----------------
d------13--------------13----------13--------------13-------------
a---11--------------------11----11--------------------11----------
e-9---------------------------9-----------------------------------

Interlude:

e----------------------------------------------------------7--7---
b----------------------------------------------------------x--x---
g----------------------------------------------------------4--4---
d-----------------------------------------------------------------
a-2---let-ring----------------------------------------------------
e-0---------------------------------------------------------------

e-7--7-7-7-7-7/9-9--9-911-11-11-1111111111/13-13-13-13-13-13-13-13
b-x--x-x-x-x-x-x-x--x-x----x--x--x-x-x-x-x-x--x--x--x--x--x--x--x-
g-4--4-4-4-4-4/6-6--6-6/8--8--8--8-8-8-8-8/11-11-11-11-11-11-11-11
d-----------------------------------------------------------------
a-----------------------------------------------------------------
e-----------------------------------------------------------------

e-14-16-9--9-9-911--7--7------------------------------------------
b-x--x--x--x-x-x-x--x--x------------------------------------------
g-11/13-6--6-6-6/8--4--4------------------------------------------
d-----------------------------------------------------------------
a-----------------------------------------------------------------
e-----------------------------------------------------------------

Bridge: ...cause it’s time to bring the fire down.......

gtr 1. and 2.

e-------------------------------------0--0------------------------
b-------------------------------------0--0------------------------
g-------8----------6----------------------------------------------
d-----6----------4-----------6------------------------------------
a-2/4---------2------------4--------------------------------------
e-----------0---------0-2--------0-0------------------------------

interlude

e-----------------------------------------------------------------
b-----------------------------------------------------------------
g-----------------------------------------------------------------
d-6-6-6-6-6-6-8-8-8-8-8-8-9-9-9-9-9-2-2--2--2---------------------
a-4-4-4-4-4-4-6-6-6-6-6-6-7-7-7-7-7-0-0--0--0---------------------
e-----------------------------------------------------------------

gtr 2.

e-----------------------------------------------------------------
b-----------------------------------14-14-14-1412127--7-7-7-9-9--
g------------------------------------x-x--x--x--x-x-x--x-x-x-x-x--
d-----------------------------------11-11-11-119-94--4-4-4-6-6--
a-----------------------------------------------------------------
e-----------------------------------------------------------------

gtr 2.



e-----------------------------------------------------------------
b-9-9-9-9-9-5-5-5-5-5-5/7-4--4--4---------------------------------
g-x-x-x-x-x-x-x-x-x-x-x-x-x--x--x-6-------------------------------
d-6-6-6-6-6-2-2-2-2-2-2/4-1--1--1-x-------------------------------
a---------------------------------4-------------------------------
e-----------------------------------------------------------------

outro chorus

that’s all
for the most part the time signature is 6/8 all the way through

trevor jones
timmy91199@yahoo.ca