A Perfect Circle — The Outsider

На этой странице Вы можете ознакомиться с 4 версиями подбора аккордов для гитары к песне "The Outsider" группы (исполнителя) "A Perfect Circle".

Band- A perfect circle
Song- The outsider
Album- Thirteenth Step
Tabbed by Frey Derrak ( evilfreya@hotmail.com)

Yay I've finally resurfaced to post the complete tab. Rejoice.

00:16 - 00:38
E /-----------------|
B /-----------------|
F#/-----------------|
Db/----0------------|let ring

00:39
E /----------------------------- E /------------------------------|
B /----------------------------- B /------------------------------|
F#/--7 x8----3x8-----0x8----3x8- F#/--7x8---10x8---3x8----0x8-----|
Db/----------------------------- Db/------------------------------|

00:56
F#/----7x16---5x8---3x8---7x8---|
Db/-----------------------------|

1:15 to 1:21
Db/-------0--(let ring)

1:22 to 1:43
E /--------------------------------------------------------|
B /--------------------------------------------------------|
F#/------------8-7-------------8-7-----------8-7-10-8-7----|
Db/-00-00-00-00-----00-00-00-00---00-00-00-00--------------|

E /---------------------------------------------------------|
B /---------------------------------------------------------|
F#/------------8-7-------------8-7-----------8-7-10-8-10-12-|
Db/-00-00-00-00-----00-00-00-00---00-00-00-00---------------|

1:44 to 2:00
E /----------------------------- E /------------------------------|
B /----------------------------- B /------------------------------|
F#/--7 x8----3x8-----0x8----3x8- F#/--7x8---10x8---3x8----0x8-----|
Db/----------------------------- Db/------------------------------|

2:01 to 2:09
F#/----7x16---5x8---3x8---7x8---|
Db/-----------------------------|

2:10 to 2:19
E /---------------------------------------------------|
B /---------------------------------------------------|
F#/--7777/5555/7777/10-10-10--5-5-5/12-------0----3---|
Db/---------------------------------------0-0--0-0--0-|

2:20 to 2:55
Nothing

2:56 to 3:13
E /----------------------------- E /------------------------------|
B /----------------------------- B /------------------------------|
F#/--7 x8----5x10---12x8----3x10- F#/--7x8---10x8---3x8----0x8-----|
Db/----------------------------- Db/------------------------------|

3:14 to 3:30
Nothing

3:31 to 3:45
E /-----------------------------------------|
B /-----------------------------------------| - Repeat
F#/-----------------------------------------|
Db/----0-0-0-3---0-0-0-3---0-0-0-3---0-0-0--|

3:46 to end
E /------------------0------12------12-----------------------|
B /----------------------------------------------------------|
F#/--0-0-0-0-3-3-3-3-----------------------0-0-0-0-3-3-3-3---|
Db/--------------------0-0-0--0-0-0------------------------0-|
-------------------------------------------------------------------------------
THE OUTSIDER - A Perfect Circle
-------------------------------------------------------------------------------
Tabbed by: Alex R

Tuning: C# F# B E G# C# (Frequently used by Billy Howerdel)

X's under the tab mean notes directly above them are palm muted.



Intro/Chorus 1
C#|-------------------------------------------------|
G#|-------------------------------------------------|
E |-----9---9-------9---9-------9---9-------9-------|
B |-------9-----------9-----------9-----------9-----|
F#|-7-----------7-----------7-----------7---------0-|
C#|-------------------------------------------------|

C#|--------------------------------------------------|
G#|--------------------------------------------------|
E |-----9---9-------9---9-------9---9----------------|
B |-------7-----------7---0-------7------------------|
F#|-5-----------5-----------------------------10--p9-|
C#|-------------------------8-----------8------------|

C#|----------------------------------------------------|
G#|----------------------------------------------------|
E |-----9---9-------9---9-------9---9---10p9---7h9p7---|
B |-------9-----------9-----------9---9------9-------7-|
F#|-7-----------7-----------7--------------------------|
C#|----------------------------------------------------|

C#|---------------------------------------------|
G#|---------------------------------------------|
E |-----9---9-------9---9---------6-----------9-|
B |-------7-----------7---------------7---------|
F#|-5-----------5-------------------------------|
C#|-------------------------3/5---------5/8-----|



Verse 1
C#|-0--------------------------0-|
G#|--0-------------------------0-|
E |---0--------------------4---4-|
B |----4-------------------2-----|
F#|-----2------------------2-----|
C#|------0-----------------------|

Guitar 2- Comes after last chord above
C#|------------------------------------------------------------------------------|
G#|------------------------------------------------------------------------------|
E |-16-----16-----16-----16-----16---16/19-19----16-----1716---14-----16/1716-|
B |------------------------------------------------------------------------------|
F#|-14-----14-----14-----14-----14---14/17-17----14-----1514---12-----14/1514-|
C#|------------------------------------------------------------------------------|



Pre-chorus
C#|-----------------------| C#|-------------------------|
G#|-----------------------| G#|-------------------------|
E |-----------------------| E |-------------------------|
B |-----------------------| x3 B |-------------------------| Repeat all
F#|-------------7---7-7-7-| F#|-------------3-----------|
C#|-0h3h5-0h3h5-----------| C#|-0h3h5-0h3h5-----0-0-3p2-|
x x x x

Guitar 2 (played during pre-chorus)
C#|-----------------------------------------------------------------|
G#|-----------------------------------------------------------------|
E |-16---16-16-16-16-16---16-16-16---14---14-14-14-14-14---14-14-14-|
B |-----------------------------------------------------------------|
F#|-14---14-14-14-14-14---14-14-14---12---12-12-12-12-12---12-12-12-|
C#|-----------------------------------------------------------------|

C#|-----------------------------------------------------------------|
G#|-----------------------------------------------------------------|
E |-16---16-16-16-16-16---16-16-16---17---17-17-17-17-17---19-19-19-|
B |-----------------------------------------------------------------|
F#|-14---14-14-14-14-14---14-14-14---15---15-15-15-15-15---17-17-17-|
C#|-----------------------------------------------------------------|

C#|-----------------------------------------------------------------|
G#|-----------------------------------------------------------------|
E |-16---16-16-16-16-16---16-16-16---14---14-14-14-14-14---14-14-14-|
B |-----------------------------------------------------------------|
F#|-14---14-14-14-14-14---14-14-14---12---12-12-12-12-12---12-12-12-|
C#|-----------------------------------------------------------------|

C#|-----------------------------------------------------------------|
G#|-----------------------------------------------------------------|
E |-12---12-12-12-12-12---12-12-12---11---11-11-11-11-11---11-11-11-|
B |-----------------------------------------------------------------|
F#|-10---10-10-10-10-10---10-10-10---9----9--9--9--9--9----9--9--9--|
C#|-----------------------------------------------------------------|



Bridge between chorus and 2nd verse
C#|-0------------------------------------------------|
G#|-0------------------------------------------------|
E |-4------------------------------------------------|
B |-2------------------------------------------------|
F#|-2------------------------------------------------|
C#|-0------------------------------------------------|

Guitar 2
C#|--------------------------------------------------|
G#|--------------------------------------------------|
E |-16----------------/19-----19--16------------/19-|
B |--------------------------------------------------|
F#|-14----------------/17-----17--14------------/17-|
C#|--------------------------------------------------|

C#|--------------------------------------------------|
G#|--------------------------------------------------|
E |-19--16-----------/19-----19--16-------17--16--|
B |--------------------------------------------------|
F#|-17--14-----------/17-----17--14-------15--14--|
C#|--------------------------------------------------|



Verse 2
C#|-------------------------------| C#|-------------------------------|
G#|-------------------------------| G#|-------------------------------|
E |-------------------------------| E |-------------------------------|
B |-------------------------------| x3 B |-------------------------------|
F#|-2-2---2-2---2-2---2-2---3---3-| F#|-5-----2-----3-----5-----3---3-|
C#|-0-0---0-0---0-0---0-0---1---0-| C#|-3-----0-----1-----4-----1---0-|
x x x x x x x x x x

C#|-------------------------------| C#|-------------------------------|
G#|-------------------------------| G#|-------------------------------|
E |-------------------------------| E |-------------------------------|
B |-------------------------------| x3 B |-------------------------7~~~~~|
F#|-2-2---2-2---2-2---2-2---3---3-| F#|-5-----2-----3-----------------|
C#|-0-0---0-0---0-0---0-0---1---0-| C#|-3-----0-----1-----4~~~~~5~~~~~|
x x x x x x x x x



Chorus 2
C#|-----------------------------------------------|
G#|-----------------------------------------------|
E |-9---9---9-----9---9-9---9---9---9-----9---9-9-|
B |-9---9---9-----9---9-9---9---9---9-----9---9-9-|
F#|-7---7---7-----7---7-7---7---7---7-----7---7-7-|
C#|-----------------------------------------------|

C#|---------------------------------------------------|
G#|---------------------------------------------------|
E |-7---7---7-----7---7-7---5---5---5-----5----/1211-|
B |-7---7---7-----7---7-7---5---5---5-----5----/1211-|
F#|-5---5---5-----5---5-5---3---3---3-----3----/109--|
C#|---------------------------------------------------|

C#|------------------------------------------------|
G#|------------------------------------------------|
E |-9---9---9-----7---9-9---7/9-9---9-----12---9-9-|
B |-9---9---9-----7---9-9---7/9-9---9-----12---9-9-|
F#|-7---7---7-----5---7-7---5/7-7---7-----10---7-7-|
C#|------------------------------------------------|

C#|------------------------------------------------------|
G#|------------------------------------------------------|
E |-7---7---7----/14-------------------------------------|
B |-7---7---7----/14---------x-7---7-----x-10---10-----2-|
F#|-5---5---5----/12---------x-7---7-----x-10---10-----2-|
C#|--------------------------x-5---5-----x-8----8------0-|



Bridge
C#|-------------------------------------------------------|
G#|-------------------------------------------------------|
E |-------------------------------------------------------|
B |-------------------------------------------------------|
F#|-2-------11----11----11------8---7-----7-----7-------7-|
C#|-0-------0---0---0---0---0-0-0---0---0---0---0---0-0-0-|

C#|-----------------------------------------------|
G#|-----------------------------------------------|
E |-----------------------------------------------|
B |-----0-------0---------------------------------|
F#|---------------------8---7-----7-----7-----7---|
C#|-7-------7-------0-0-0---0---0---0---0---0---0-|

C#|-----------------------------------------------|
G#|-----------------------------------------------|
E |-----------------------------------------------|
B |-----------------------------------------------|
F#|-11----11----11----12----14----14----14----14--|
C#|-0---0---0---0---0---0---0---0---0---0---0---0-|

C#|------------------------------------------|
G#|------------------------------------------|
E |------------------------------------------|
B |------------------------------------------|
F#|-12----12----12------11h12-11----11----11-|
C#|-0---0---0---0---0-0-0-----0---0---0---0--|

C#|-----------------------------------------------|
G#|-----------------------------------------------|
E |-13----13----13------10--9-----9-----9-------9-|
B |-----------------------------------------------|
F#|-11----11----11------8---7-----7-----7-------7-|
C#|-0---0---0---0---0-0-0---0---0---0---0---0-0-0-|

C#|-----------------------------------------------|
G#|-----------------------------------------------|
E |---------------------10--9-----9-----9-----9---|
B |-----0-------0---------------------------------|
F#|---------------------8---7-----7-----7-----7---|
C#|-7-------7-------0-0-0---0---0---0---0---0---0-|

C#|-----------------------------------------------|
G#|-----------------------------------------------|
E |-13----13----13----14----16----16----16----16--|
B |-----------------------------------------------|
F#|-11----11----11----12----14----14----14----14--|
C#|-0---0---0---0---0---0---0---0---0---0---0---0-|

C#|-----------------------------------------------------|
G#|-----------------------------------------------------|
E |-16/19-19---16---19-------22--21---21-21--21---21-21-|
B |-----------------------------------------------------|
F#|-14/17-17---14---17-------20--19---19-19--19---19-19-|
C#|-0-----0----0----0----0-0-0---0---0---0---0---0---0--|



Pre-chorus 3
C#|-----------------------| C#|-------------------------|
G#|-----------------------| G#|-------------------------|
E |-----------------------| E |-------------------------|
B |------------/9-------9-| x3 B |-------------------------| Repeat all
F#|-2h5/5-2h5--/7---7-7-7-| F#|-2h5/5-2h5/7-2-------54-|
C#|-0h3/5-0h3-------------| C#|-0h3/5-0h3/5-0---0-0-32-|
x x x x



Jam before last chorus
C#|---------------------------------------------------|
G#|---------------------------------------------------|
E |---------------------------------------------------|
B |-9---9-9-9---9-12---9-9---7/9-9-9-9-9-9/109-9-9-9-|
F#|-7---7-7-7---7-10---7-7---5/7-7-7-7-7-7/8-7-7-7-7-|
C#|---------------------------------------------------|
x x x x x x x x x

C#|--------------------------------------------------------|
G#|--------------------------------------------------------|
E |---------------7----------------------------------------|
B |-7---7-7-7-----7---7-7---12---12-12---12-12/14-14-14-14-|
F#|-5---5-5-5---5-----5-5---10---10-10---10-10/12-12-12-12-|
C#|--------------------------------------------------------|
x x x x

C#|---------------------------------------------------|
G#|---------------------------------------------------|
E |---------------------------------------------------|
B |-9---9-9-9---9-12---9-9---7/9-9-9-9-9-9/109-9-9-9-|
F#|-7---7-7-7---7-10---7-7---5/7-7-7-7-7-7/8-7-7-7-7-|
C#|---------------------------------------------------|
x x x x x x x x x

C#|---------------------------------------------|
G#|---------------------------------------------|
E |---------------7---------------6-----------9-|
B |-7---7-7-7-----7---7-7-----------------------|
F#|-5---5-5-5---5-----5-5-----------------------|
C#|------------------------/5-----5----/8-----8-|
x x



Last chorus
C#|---------------------------------------------|
G#|---------------------------------------------|
E |-------------------7-----7----------------7-|
B |-2-----2-----2---x-7-----7----2-----2---x-7-|
F#|-2-----2-----2---x-5-----5----2-----2---x-5-|
C#|-0-----0-----0---x-------------0-----0---x---|

+ + + +
C#|-------------------------------------------5-5-5-|
G#|-----------------------------------------5-------|
E |-7----------------7-----7----------------------|
B |-7----2-----2---x-7-----7----2-----2-----------|
F#|-5----2-----2---x-5-----5----2-----2-----------|
C#|-------0-----0---x-------------0-----0-----------|

C#|---------------------------------------------|
G#|---------------------------------------------|
E |-------------------7-----7----------------7-|
B |-2-----2-----2---x-7-----7----2-----2---x-7-|
F#|-2-----2-----2---x-5-----5----2-----2---x-5-|
C#|-0-----0-----0---x-------------0-----0---x---|

C#|-------------------------------------------------|
G#|-------------------------------------------------|
E |-7----------------7-----7----------------------|
B |-7----2-----2---x-7-----7----2-----2---9-9-9-9-|
F#|-5----2-----2---x-5-----5----2-----2---7-7-7-7-|
C#|-------0-----0---x-------------0-----0-----------|
x x x x

C#|---------------------------------------------|
G#|---------------------------------------------|
E |---------------------------------------------|
B |-7-----7-----7-----7-----10----10----10----5-|
F#|-7-----7-----7-----7-----10----10----10----5-|
C#|-5-----5-----5-----5-----8-----8-----8-----3-|

C#|---------------------------------------------|
G#|---------------------------------------------|
E |-------------------7-----7------------9-----|
B |-2-----2-----2---x-7-----7----2-------------|
F#|-2-----2-----2---x-5-----5----2-------7-----|
C#|-0-----0-----0---x-------------0-----0-----0-|
x x

C#|---------------------------------------------------|
G#|---------------------------------------------------|
E |---------------------------------------------------|
B |-7-----7-----7-----7-----10----10----10----5-----2-|
F#|-7-----7-----7-----7-----10----10----10----5-----2-|
C#|-5-----5-----5-----5-----8-----8-----8-----3-----0-|




| / slide up
| slide down
| h hammer-on
| p pull-off
| ~ vibrato
| + harmonic
| x Mute note
===============================================================================
A Perfect Circle - The Outsider

h = hammer-on
p = pull-off
s = slide
x = muted strings
m = palm mute
* = harmonic

Intro/chorus : If anyone can work out that twiddly bit properly let me know!

Eb¦--------------------¦--------------------¦----------------------¦
Bb¦--------------------¦--------------------¦----------------------¦
Gb¦----7---7----7---7--¦----7---7----7------¦----7---7----7---7----¦
Db¦------7--------7- --¦------7--------7----¦------5--------5------¦
Ab¦--5--------5--------¦--5--------5-----0--¦--3--------3-------3--¦
Db¦--------------------¦--------------------¦----------------------¦

¦--------------------¦--------------------¦----------------------------¦
¦--------------------¦--------------------¦----------------------------¦
¦----7---7-----------¦----7---7----7---7--¦---7---7---8-7-7h8-7h8p8p5--¦
¦------5-------------¦------7--------7----¦-----7---7----------------5-¦
¦-------------8s7-5--¦--5--------5--------¦-5--------------------------¦
¦--8--------8--------¦--------------------¦----------------------------¦

¦--------------------¦--------------¦--------------------¦
¦--------------------¦--------------¦--3-----------------¦
¦----7---7----7---7--¦----4-------7-¦--2-----------------¦
¦------5--------5----¦------5-------¦--0-----------------¦
¦--3--------3--------¦--------------¦--0-----------------¦
¦--------------------¦-s5-----5s8---¦--0-----------------¦

Verse 1 : Let ring and play Db chord a few more times before the first bridge

Bridge 1 - slight distortion

¦--------------------¦--------------------¦---------------------¦
¦--------------------¦--------------------¦---------------------¦
¦--------------------¦--------------------¦---------------------¦
¦--------------------¦--------------------¦---------------------¦
¦-------------5-xx-5-¦-------------5-xx-5-¦-------------5-xx-5--¦
¦-0h3h5-0h3h5--------¦-0h3h5-0h3h5--------¦-0h3h5-0h3h5---------¦

¦-------------------------¦--------------------¦--------------------¦
¦-------------------------¦--------------------¦--------------------¦
¦-------------------------¦--------------------¦--------------------¦
¦-------------------------¦--------------------¦--------------------¦
¦-------------------------¦-------------5-xx-5-¦-------------5-xx-5-¦
¦-0h3h5-0h3h5-0h3h5-0h3p2-¦-0h3h5-0h3h5--------¦-0h3h5-0h3h5--------¦

¦---------------------¦-------------------------¦
¦---------------------¦-------------------------¦
¦---------------------¦-------------------------¦
¦---------------------¦-------------------------¦
¦-------------5-xx-5--¦-------------------------¦
¦-0h3h5-0h3h5---------¦-0h3h5-0h3h5-0h3h5-0h3p2-¦

Chorus 1 : Play Intro with slight distortion

Verse 2 : Heavily distorted

¦--------------¦-----------------¦-----------------¦-----------------¦
¦--------------¦-----------------¦-----------------¦-----------------¦
¦--------------¦-----------------¦-----------------¦-----------------¦
¦--00-00-00-00-¦-1-0-00-00-00-00-¦-1-0-00-00-00-00-¦-1-0-3-0-1-0-1-0-¦
¦--00-00-00-00-¦-1-0-00-00-00-00-¦-1-0-00-00-00-00-¦-1-0-3-0-1-0-1-0-¦
¦--00-00-00-00-¦-1-0-00-00-00-00-¦-1-0-00-00-00-00-¦-1-0-3-0-1-0-1-0-¦
mm mm mm mm mm mm mm mm mm mm mm mm m m

¦--------------¦-----------------¦-----------------¦-----------------¦
¦--------------¦-----------------¦-----------------¦-----------------¦
¦--------------¦-----------------¦-----------------¦-----------------¦
¦--00-00-00-00-¦-1-0-00-00-00-00-¦-1-0-00-00-00-00-¦-1-0-3-0-1-----5-¦
¦--00-00-00-00-¦-1-0-00-00-00-00-¦-1-0-00-00-00-00-¦-1-0-3-0-1-------¦
¦--00-00-00-00-¦-1-0-00-00-00-00-¦-1-0-00-00-00-00-¦-1-0-3-0-1--4----¦
mm mm mm mm mm mm mm mm mm mm mm mm m

Bridge 2 : As bridge 1 but with more distortion

Chorus 2 : One guitar plays Intro with distortion while the other plays....

¦-------------¦-------------¦-------------¦-----------------¦
¦-------------¦-------------¦-------------¦-----------------¦
¦-7-7-7-77-77-¦-7-7-7-77-77-¦-5-5-5-55-55-¦-3-3-3-33-3-10s9-¦
¦-7-7-7-77-77-¦-7-7-7-77-77-¦-5-5-5-55-55-¦-3-3-3-33-3-10s9-¦
¦-5-5-5-55-55-¦-5-5-5-55-55-¦-3-3-3-33-33-¦-1-1-1-11-1-8 s7-¦
¦-------------¦-------------¦-------------¦-----------------¦

¦-------------¦----------------¦-----------------¦--------------¦
¦-------------¦----------------¦-----------------¦--------------¦
¦-7-7-7-75-77-¦-5s7-777-710-77-¦-5-555-12-121212-¦--------------¦
¦-7-7-7-75-77-¦-5s7-777-710-77-¦-5-555-12-121212-¦-x-5-5--x-8-8-¦
¦-5-5-5-53-55-¦-3s5-555-58 -55-¦-3-333-10-101010-¦-x-5-5--x-8-8-¦
¦-------------¦----------------¦-----------------¦-x-5-5--x-8-8-¦

¦--------------¦
¦--------------¦
¦--------------¦
¦-0------------¦
¦-0------------¦
¦-0------------¦


Middle 8 : Clean sound again (this has the right notes but not exact timings etc, just adlib)

¦-----------¦---------¦----------¦-------------¦-------------¦
¦-----------¦---------¦----------¦-------------¦-------------¦
¦-----------¦---------¦----------¦-------------¦-------------¦
¦-----------¦---------¦----------¦-------------¦-------------¦
¦-9-9-9---7-¦-5-5-5-5-¦--3-3--s6-¦-5--5--5--5--¦-9--9-9---10-¦
¦-0-0-0-0-0-¦-0-0-0---¦-7-7-7----¦-0-0-0-0-0-0-¦-0-0--0-0-0 -¦

¦---------------¦-------------------¦-------------¦------------------¦
¦---------------¦-------------------¦-------------¦------------------¦
¦---------------¦-------------------¦-------------¦-11-11-11-11-11-9-¦
¦---------------¦-------------------¦-------------¦------------------¦
¦-12--12-12--12-¦-10--10-12-10-9s10-¦-9--9--9--9--¦-9--9--9--9--9--7-¦
¦-0 -0---0 -0---¦-0 -0---0 ----0----¦-0-0-0-0-0-0-¦-0--0--0--0--0--0-¦

¦-------------¦----------¦-------------¦-------------------¦
¦-------------¦----------¦-------------¦-------------------¦
¦-7-777-7-777-¦----------¦-7-777-7-777-¦-11-11-11-11-11-12-¦
¦-------------¦----------¦-------------¦-------------------¦
¦-5-555-5-555-¦--3-3--s6-¦-5-555-5-555-¦-9--9--9--9--9--10-¦
¦-0-000-0-000-¦-7-7-7----¦-0-000-0-000-¦-0--0--0--0--0--0--¦

¦-------------------------¦----------------------¦
¦-------------------------¦----------------------¦
¦-14-14-14-14-14-14-14-14-¦-14s17-17-17-17-14-20-¦
¦-------------------------¦----------------------¦
¦-12-12-12-12-12-12-12-12-¦-12s15-15-15-15-12-18-¦
¦-0--0--0--0--0--0--0--0--¦-0--0--0--0--0--0--0--¦

¦-------------------------¦
¦-------------------------¦
¦-19-19-19-19-19-19-19-19-¦
¦-------------------------¦
¦-17-17-17-17-17-17-17-17-¦
¦-0--0--0--0--0--0--0--0--¦

Bridge 3 : Lots of distortion this time

¦--------------------¦--------------------¦---------------------¦
¦--------------------¦--------------------¦---------------------¦
¦-------------7-xx-7-¦-------------7-xx-7-¦-------------7-xx-7--¦
¦-0h3h5-0h3h5-7-xx-7-¦-0h3h5-0h3h5-7-xx-7-¦-0h3h5-0h3h5-7-xx-7--¦
¦-0h3h5-0h3h5-5-xx-5-¦-0h3h5-0h3h5-5-xx-5-¦-0h3h5-0h3h5-5-xx-5--¦
¦-0h3h5-0h3h5--------¦-0h3h5-0h3h5--------¦-0h3h5-0h3h5---------¦

¦-------------------------¦--------------------¦--------------------¦
¦-------------------------¦--------------------¦--------------------¦
¦-------------------------¦-------------7-xx-7-¦-------------7-xx-7-¦
¦-0h3h5-0h3h5-0h3h5-0h3p2-¦-0h3h5-0h3h5-7-xx-7-¦-0h3h5-0h3h5-7-xx-7-¦
¦-0h3h5-0h3h5-0h3h5-0h3p2-¦-0h3h5-0h3h5-5-xx-5-¦-0h3h5-0h3h5-5-xx-5-¦
¦-0h3h5-0h3h5-0h3h5-0h3p2-¦-0h3h5-0h3h5--------¦-0h3h5-0h3h5--------¦

¦---------------------¦-------------------------¦
¦---------------------¦-------------------------¦
¦-------------7-xx-7--¦-------------------------¦
¦-0h3h5-0h3h5-7-xx-7--¦-0h3h5-0h3h5-0h3h5-0h3p2-¦
¦-0h3h5-0h3h5-5-xx-5--¦-0h3h5-0h3h5-0h3h5-0h3p2-¦
¦-0h3h5-0h3h5---------¦-0h3h5-0h3h5-0h3h5-0h3p2-¦


Guitary bit

¦---------------¦------------------¦----------------¦
¦---------------¦------------------¦----------------¦
¦---------------¦------------------¦----------------¦
¦-7-77-7s10s7-7-¦-5s7-7777-77-77-7-¦-5-55-5-5-5-5-5-¦
¦-5-55-5s8 s5-5-¦-3s5-5555-55-55-5-¦-3-33-3-3-3-3-3-¦
¦---------------¦------------------¦----------------¦
mm mmmm mm mm m m

¦----------------------¦---------------¦------------------¦
¦----------------------¦---------------¦------------------¦
¦----------------------¦---------------¦------------------¦
¦-10-10-10-10-10s12-12-¦-7-77-7s10s7-7-¦-5s7-7777-77-77-7-¦
¦-8--8 -8 -8 -8 s10-10-¦-5-55-5s8 s5-5-¦-3s5-5555-55-55-5-¦
¦----------------------¦---------------¦------------------¦
m m mm mmmm mm

¦----------------¦---------------¦
¦----------------¦---------------¦
¦----------------¦----4-------7--¦
¦-5-55-5-5-5-5-5-¦------5--------¦
¦-3-33-3-3-3-3-3-¦---------------¦
¦----------------¦-s5-----5s8----¦
mm m m

Last Chorus

¦-----------------¦---------------¦----------------¦--------------¦
¦-----------------¦---------------¦----------------¦--------------¦
¦-----------------¦---------------¦----------------¦--------------¦
¦---------10-10s-¦-------10-10s-¦--------10-10s-¦-----*5*5*5*5-¦
¦---------10-10s-¦-------10-10s-¦--------10-10s-¦--------------¦
¦-0-0-0-x-10-10s-¦-0-0-x-10-10s-¦-0-0-x--10-10s-¦-0-0----------¦

¦-----------------¦---------------¦----------------¦-----x-x-x-x--¦
¦-----------------¦---------------¦----------------¦-----x-x-x-x--¦
¦-----------------¦---------------¦----------------¦-----x-x-x-x--¦
¦---------10-10s-¦-------10-10s-¦--------10-10s-¦-----x-x-x-x--¦
¦---------10-10s-¦-------10-10s-¦--------10-10s-¦-----x-x-x-x--¦
¦-0-0-0-x-10-10s-¦-0-0-x-10-10s-¦-0-0-x--10-10s-¦-0-0-x-x-x-x--¦

¦---------¦------------¦----------¦------------¦---------¦------------¦
¦---------¦------------¦----------¦------------¦-8-8-8-8-¦-11-11-11-6-¦
¦-7-7-7-7-¦-10-10-10-5-¦----------¦--------7---¦-7-7-7-7-¦-10-10-10-5-¦
¦-5-5-5-5-¦-8--8--8--3-¦-0-0-0-10-¦-10-0---7---¦-5-5-5-5-¦-8--8--8--3-¦
¦-5-5-5-5-¦-8--8--8--3-¦-0-0-0-10-¦-10-0---5---¦-5-5-5-5-¦-8--8--8--3-¦
¦-5-5-5-5-¦-8--8--8--3-¦-0-0-0-10-¦-10-0-0---0-¦-5-5-5-5-¦-8--8--8--3-¦
m

¦----------¦
¦----------¦
¦----------¦
¦-0--------¦
¦-0--------¦
¦-0--------¦


THE END
A Perfect Circle - The Outsider

Intro - Standard Tuning (Capo 2)

E||------------------|------------------|------------------|-----------------
B||------------------|------------------|------------------|-----------------
G||-------4-----4----|-------4-----4----|-------4-----4----|-------4---------
D||----------4-------|----------4-------|----------4-------|----------4------
A||--2---------------|--2---------------|--2---------------|--2----------2---
E||------------------|------------------|------------------|-----------------

------------------|------------------|------------------|------------------|
------------------|------------------|------------------|------------------|
-------4-----4----|-------4-----4----|-------4-----4----|-------4-----4----|
----------4-------|----------4-------|----------4-------|----------4-------|
--0---------------|--0---------------|--0---------------|--0---------------|
------------------|------------------|------------------|------------------|

------------||
------------||
------------|| X2
------------||
--0----2----||
------------||

Verse
Help me if you can... So could you please...
E||--------------------------------------------------------------------
B||--------------------------------------------------------------------
G||--2----------------------------------2------------------------------
D||--2----------------------------------2------------------------------
A||--0----------------------------------0------------------------------
E||--------------------------------------------------------------------

Chorus
...Disconnect... ...Self-Destruct... ...One bullet...
E||--------------------------------------------------------------------
B||--------------------------------------------------------------------
G||--------------------------------------------------------------------
D||--4---------------------2-------------------------------------------
A||--2---------------------0--------------------------2----------------
E||---------------------------------------------------0----------------

...Disconnect... ...Self-Destruct... ...One bullet...
E||--------------------------------------------------------------------
B||--------------------------------------------------------------------
G||--------------------------------------------------------------------
D||--4/7/4---------------------4/7/4----------------------4/7/4--------
A||--2/5/2---------------------2/5/2----------------------2/5/2--------
E||--------------------------------------------------------------------

...Have his... ...Day to die...
E||--------------------------------------------------------------------
B||--------------------------------------------------------------------
G||--------------------------------------------------------------------
D||--------------------------------------------------------------------
A||--2------------------------------------------------5----------------
E||--0------------------------------------------------3----------------