A Perfect Circle — Wake The Dead

На этой странице Вы можете ознакомиться с 3 версиями подбора аккордов для гитары к песне "Wake The Dead" группы (исполнителя) "A Perfect Circle".

#-----------------------------PLEASE NOTE-------------------------------------#
#This OLGA file is the author's own work and represents their interpretation #
#of the song. You may only use this file for private study, scholarship, or #
#research. Remember to view this file in Courier, or some other monospaced #
#font. See http://www.olga.net/faq/ for more information. #
#-----------------------------------------------------------------------------#

Date: Mon, 28 Aug 2000 17:09:46 -0400
From: MoonWolf92@aol.com
Subject: a/a_perfect_circle/wake_the_dead.tab

##------------------------------------------------------------------##
# Title: Wake The Dead #
# Written By: A Perfect Circle #
# Tabbed by: J.S. #
# Email: Moondew92@yahoo.com #
# (Any corrections or suggestions are welcome.) #
##------------------------------------------------------------------##

Open G Tuning (Open E [E,B,E,G#,B,E], Capo III)
(Strings are labeled respective to E tuning.
Tabs are written respective to capoed guitar.)
This song works best with fingerpicking.

h- hammer-on
^- pull-off
/- slide up
- slide down

This piece is only the acoustic part. The solo that goes over
this I think is played on an electric violin, but I'm working
on tabbing it out for guitar. If anyone can play that part on
guitar, please email me with the tabs.


Riff 1:
e ----------4------2h4^2--------------------4-----2------------
B --5---------------------4/5-------5---------------4/5--------
G#------0-------0---------------0--------0-----0---------------
E ----0-------0---------------0--------0-----0-----------------
B -------------------------------------------------------------
E -------------------------------------------------------------

Riff 2:
e ---------------------------------------------0---------------
B --5----------5--4----------4---2-----4^2--------------2------
G#-------0-------------0-------------0------0--------0---------
E -----0-------------0-------------0-----0--------0------------
B --5-------5-----0-------0------2-----2-------2---------------
E -------------------------------------------------------------

Riff 3:
e -------------------------------------------------------------
B --0---------0-----0--------0----0-----4-5-4-5-4--------------
G#-------0-------0-------0-----0--------0-0-0-0-0--------------
E -------------------------------------------------0-----------
B -----0---------------0-------------0-------------------------
E --4-------4-------4------4------5----------------------------

Riff 4:
e -------------------------------------------------------------
B ----------2--------------------------------------------------
G#-----0---------0---------------------------------------------
E --------0----0-----------------------------------------------
B --2----------------------------------------------------------
E -------------------------------------------------------------

Riff 5:
e --------------------------------------------------------------
B ---------2---------------2--------------2-------------2-------
G#----0---------0----0---------0----0----------0----0-------0---
E -------0----0---------0----0---------0----0---------0---0-----
B -2---------------2--------------------------------------------
E --------------------------------2---------------2-------------

Riff 6: Last time only end with...
e ---------------------I----------------------------------------
B --2------------------I---------2------------------------------
G#-----0-----0---------I---0------------------------------------
E --------0-----0------I------0---------------------------------
B -----------------2---I------------2(let ring)-----------------
E ---------------------I----------------------------------------

Play
Riff 1: 6x
Riff 2: 8x
Riff 3: 4x
Riff 4: 8x
Riff 5: 4x
Riff 2: 8x
Riff 3: 7x
Riff 4: 8x
Riff 5: 4x
Continue to play Riff 5 slower and slower
(if you listen to the song u can hear the pace slow)
Then play
Riff 6: 3x
And you're done!
TIPO 1          TIPO 2    
e|--3------7-----||-5H7/3-2-3---||-5--2-3-----|
B|----3------8---||-------------||------------|
G|--0---0--0---0-||-0-----0-----||-0--0-------|
D|---------------||-------------||------------|
A|---------------||-------------||------------|
E|---------------||-------------||------------|

ALTERNA EL TIPO 1 Y EL TIPO 2

2 PARTE parte3
e|--3-----3------------------2------||-3-----2-----||
B|------3----7-----7--5--------3----||---3-----3---||
G|----0----------7------5--------0--||-----0-----0-||
D|--2----------5----------5---------||-------------||
A|-----------5--------3------3------||-3-----3-----||
E|----------------------------------||-------------||
parte4
||---------||
||--5---5--||
||-------5-||
||---------||
||--3-3----||
||---------||
se alterna la parte 3 y 4
SE REPITE VARIAS VECES


e|--------2----------2----------2-3-2-3p2-------|
B|--3-------3--3-------3--3-----3-3-3-3---------|
G|----0----------0----------0-------------------|
D|--0---0-----0----0------0---0-----------------|
A|----------------------------------------------|
E|-------------------------------------------(7)|

|--------0----------0-----||------5-----------5-----||
|--0-------(0)-0------(0)-||-0------(0)-0-------(0)-||
|-------------------------||------------------------||
|----4-----------4--------||---4----------4---------||
|------2-----------2------||----2-----------2-------||
|-------------------------||------------------------||
se repite varias veces

y esa es toda la саnсiуn despues empieza otra vez desde la 2 parte
cualquier correccion o sugerencia me escriben a felipe_abellan@yahoo.com
#----------------------------------PLEASE NOTE--------------------------------#
#This file is the author's own work and represents their interpretation of the#
#song. You may only use this file for private study, scholarship, or research.#
#-----------------------------------------------------------------------------#
#-- File created with Instab - http://www.pconline.com/~smcarey/instab.html --#
#-----------------------------------------------------------------------------#


Author/Artist: A perfect Circle
Title: Wake the dead
Album: ???
Transcribed by: Wang Jen Yu
Email: tusoldier@hotmail.com


Here is the violin solo, transcripted for guitar. Please e-mail me for any commets
or corrections.

Wake the Dead
(violin Solo)

0:35 0:48 1:04
-22^^^^^^^^^^22b23^^-19--|--------------------|-------------------------------|
-------------------------|--19b19b19b19b------|--12-1215---1012-------------|
-------------------------|--------------------|-------------------------------|
-------------------------|--------------------|-------------------------------|
-------------------------|--------------------|-------------------------------|
-------------------------|--------------------|-------------------------------|

1:21
-----------------------------------|------------------------------------------|
-10--1213/12----1215--17/15-12---|-----12b12b12b----------------------------|
-----------------------------------|------------------------------------------|
-----------------------------------|------------------------------------------|
-----------------------------------|------------------------------------------|
-----------------------------------|------------------------------------------|

1:33
-19b19--------------|------17-19-19b19--1922-22--|--22b24b22-19--------------|
-------17-12-12b12--|--12-------------------------|---------------------------|
--------------------|-----------------------------|---------------------------|
--------------------|-----------------------------|---------------------------|
--------------------|-----------------------------|---------------------------|
--------------------|-----------------------------|---------------------------|


-1920/19---------------------------|----------------------|------------------|
----------17--1213/12--------------|----------------------|--1213/1213/12--|
------------------------12----------|----------------------|------------------|
----------------------------910/9--|------910/9-9b9b9b---|------------------|
------------------------------------|----------------------|------------------|
------------------------------------|----------------------|------------------|

1:55 2:10 2:30
----12-14-19-14-17-17^^^^|----------------|------------------|----------------|
-12----------------------|--19b19b19-19-17|--12b12/8h10p8-12-|-7-78-810-----|
-------------------------|----------------|------------------|----------------|
-------------------------|----------------|------------------|----------------|
-------------------------|----------------|------------------|----------------|
-------------------------|----------------|------------------|----------------|

2:34
----------------------|---19b19-------14b14-----------------------------------|
-1012-12--12b12b12b--|---------17----------12------12b12b12b-----------------|
----------------------|-------------------------------------------------------|
----------------------|-------------------------------------------------------|
----------------------|-------------------------------------------------------|
----------------------|-------------------------------------------------------|

2:38
---------22-22-21b24-21-------------22-22---22-20-19--------------------------|
------------------------------------------------------------------------------|
---19-19---------------------19-19--------------------------------------------|
------------------------------------------------------------------------------|
------------------------------------------------------------------------------|
------------------------------------------------------------------------------|

2:57
-20-19--|---------------------------------------------------------------------|
--------|---------------------------------------------------------------------|
--------|--9-910/9-9^^^^^^^-912---1214-------------------------------------|
--------|---------------------------------------------------------------------|
--------|---------------------------------------------------------------------|
--------|---------------------------------------------------------------------|