A Static Lullaby — Lipgloss And Letdown

На этой странице Вы можете ознакомиться с 2 версиями подбора аккордов для гитары к песне "Lipgloss And Letdown" группы (исполнителя) "A Static Lullaby".

A Static Lullaby
Lipgloss And Letdown
...And Don't Forget To Breathe
Standard Tuning (EADG)
Submitted By: Stand Alone (projectwyze13@hotmail.com)

Intro:
G-----|---------------------------------------------------------
D-----|---------------------------------------------------------
A-121|-0-00000------0-00000-3----0-00000-----------------------
E-----|--------1-1-11-------1--111-------1-1-1-13333333-11-0-000

{0:11}
G------------------------------------------------
D------------------------------------------------
A-0-00000------0-00000-3----0-00000--------------
E--------1-1-11-------1--111-------1-1-1-13~~~1~~

1st Verse: {0:22}
G---------------------------------------------------
D---------------------------------------------------
A-0000--00-00-3333--33-33-------------0000000~------
E-------------------------1111--11-11------------023

{0:33}
G---------------------------------------------------
D---------------------------------------------------
A-0000--00-00-3333--33-33-------------00000000000000
E-------------------------1111--11-11---------------

Bridge {0:43}
G-------------------------------------------------------------------------
D-------------------------------------------------------------------------
A-3333-0000-----------3333-0000-----------3333300000----------3333-0000---
E-----------1111-1111-----------1111-1111-----------111111111-----------1~

1st Chorus: {1:00}
G--------------------------------------
D--------------------------------------
A-0>>-----3>>-----0>>-----3>>-------81
E-----1>>-----3>>-----1>>-----1~~1~~---

2nd Verse: {1:21}
G-----------------------------------------222~~|-------2-5-2
D----------------------------------------------|----2-3-3---
A-0000--00-00-3333--33-33-------------0000-----|0-3---------
E-------------------------1111--11-11----------|------------

{1:32}
G------------------00022200002---------------------------------------
D-------------------------------3-----------------------7--7--7-7777-
A-0000--00-00-333-----------------3-----------------0000-00-00-0-----
E------------------------------------11-11--11-11--------------------

{1:43}
G--------------02-----------------------------------------------
D-----------------3----------5555-------------------------------
A-000000000000------0333333--------3333------------000000000000-
E---------------------------------------111111111---------------

{1:54}
G-------------02-------------------------------------
D---------------3-------5555-------------------777777
A-000000000000---0333333----3333---------000000------
E-------------------------------111111111------------

2nd Chorus: {2:04} (x2)
G----------------
D----------------
A-0>>-----3>>----
E-----1>>-----3>>

Breakdown: {2:28}
G---------------------------------------------------------------------------
D---------------------------------------------------------------------------
A--------------------0~~~~~~~~~~~~~~~~--------------------0~~~~~~~~~~~~~~~~~
E-1~~~~~~~~~~~~~~~~~~-------------------1~~~~~~~~~~~~~~~~~~-----------------

{2:47}
G---------------------------------------------------------------------------
D---------------------------------------------------------------------------
A---------------0-(x16)---------------------------------0-0-0-0-0-0-0-3/12--
E-1(x16)-----------------------------1-(x16)--------------------------------

3rd Chorus: {3:08}
G------------------------------------
D------------------------------------
A-0>>-----3>>-----0>>-----3>>--------
E-----1>>-----3>>-----1>>-----3>>3/11

{3:29} (x4)
G--------
D--------
A-----0>>
E-1>>----

Ending: (4:11)
G----
D----
A-0-0
E----
-------------------------------------------------------------------------------
Lipgloss and Letdown - A Static Lullaby
-------------------------------------------------------------------------------

www.astaticlullaby.com
www.ferretrecords.com

Tabbed by:Ryan (ibledonstages)
Email: ibledonstages@hotmail.com

Tuning:Drop D DADGBE low to high

Lipgloss and Letdown

guitar 1 intro
-------------------------------------------
-------------------------------------------
-------------------------------------------
--7----3----7----3----7----3----5----3-----
--7-x4-3-x5-7-x4-3-x5-7-x4-3-x5-5-x3-3-----
--7----3----7----3----7----3----5----3-----

guitar 2 intro
-----------------------------------------------------
--5-----5----5----5----5----5------------------------
---5-5--5-x4--5-5-5-x4--5-5-5-x4---------------------
----7---3------7--3------7--3----5----3--------------
---------------------------------5-x3-3---------3.5*-
---------------------------------5----3-----3.5*-----

guitar 1 prechorus
--------------------------------
--------------------------------
-5----7----10----10-------------
-5-x4-7-x4-10-x3-10-x3----------
-3----5----8-----7--------------
--------------------------------

guitar 2 prechorus
------------------------------
------------------------------
-5----7----5-x3-5-x3----------
-5-x4-7-x4-3----2-------------
-3----5-----------------------
------------------------------


guitar 1 chorus
---------------------------------------------------
---------------------------------------------------
-------------5---------------------------5---------
-7-----3-----5-x16-5---------7-----3-----5-x16-3-3-
-7-x16-3-x16-3-----5-x16-----7-x16-3-x16-3-----3-3-
-7-----3-----------5---------7-----3-----------3-3-

guitar 2 chorus
--------------------------------------------------
--------------------------------------------------
-9-----5-----5-----7/9-9-9/7-7-7/9/12-12-12-------
-7-x16-3-x16-5-x16-5/7-7-7/5-5-5/7/10-10-10-------
-------------3------------------------------------
--------------------------------------------------

--------------------------
--------------------------
-9-----5-----5------------
-7-x16-3-x16-5-x16-3-3----
-------------3-----3-3----
-------------------3-3----

guitar 2 verse 2 Fast As Fuck (not sure about this)
---------------------------
---------------------------
---------------------------
--0-3-7-3-5-7-8-7-5-7-5-7--
---------------------------
---------------------------

guitar 1 prechorus
---------------------------------------------------
---------------------------------------------------
---------------------------------------------------
-7-----10-----3-----7-----7-----10----3-----7------
-7-x16-10-x16-3-x16-7-x16-7-x16-10-x6-3-x16-7-x16--
-7-----10-----3-----7-----7-----10----3-----7------

guitar 2 prechorus (figure out the strumming yourself aint that hard)

-------------------------------------------------
-------------------------------------------------
-9-14-12-17-16-17-16-9-14-12-17-16-17-19-17------
-7-12-10-15-14-15-14-7-12-10-15-14-15-17-15------
-7-12-10-15-14-15-14-7-12-10-15-14-15-17-15------
-------------------------------------------------

guitar 1 2nd chorus
-----------------------------
-----------------------------
-------------5---------------
-7-----3-----5-x16-5---------
-7-x16-3-x16-3-----5-x16-----
-7-----3-----------5---------

guitar 2 chorus
--------------------------------------------------
--------------------------------------------------
-9-----5-----5-----7/9-9-9/7-7-7/9/12-12-12-------
-7-x16-3-x16-5-x16-5/7-7-7/5-5-5/7/10-10-10-------
-------------3------------------------------------
--------------------------------------------------

breakdown guitar 1
----------------------------------------------------
----------------------------------------------------
----------------------------------------------------
-3-3/7-9----3---------7-----3-----7-----------------
-3-3/7-7-x2-3-x16-----7-x16-3-x16-7-x10? pickscrape-
-3-3/7-7----3---------7-----3-----7-----------------

breakdown guitar 2
-----------------------------------------------------
-6----5-----6-------5-------6----8-6-5-6-5-8-6-5-----
--5-5--5-5---5-5-x4--5-5-x4--5-5---------------------
---7----7-----7-------7-------7----------------------
-----------------------------------------------------
-----------------------------------------------------

guitar 1 3nd chorus
-----------------------------
-----------------------------
-------------5---------------
-7-----3-----5-x16-5---------
-7-x16-3-x16-3-----5-x16-----
-7-----3-----------5---------

guitar 2 chorus
--------------------------------------------------
--------------------------------------------------
-9-----5-----5-----7/9-9-9/7-7-7/9/12-12-12-------
-7-x16-3-x16-5-x16-5/7-7-7/5-5-5/7/10-10-10-------
-------------3------------------------------------
--------------------------------------------------

guitar 1 outro
------------------------------------------
------------------------------------------
-10-9-5----12-10-9------------------------
-8--7-3-x4-10-8--7-x4---3-x16-7-x16-------
-8--7-3----10-8--7------3-----7-----------
------------------------3-----7-----------

guitar 2 outro (not sure about this as well)
-----------------------------------
-8---------13----------------------
--7-5--------12-10-over and over---
-----------------------------------
-----------------------------------
-----------------------------------


Now In Stores demo coming soon