A Static Lullaby — Nightmare Win 6-0

this band kicks ass!!!! cause So.Cali. rules
email me for info...bboy91702@yahoo.com

To start strum these chords
E---0------------0---------0-----------------------------
B---0------------0---------0-----------------------------
G---0------------0---------0-----------------------------
D---0------------0---------0-----------------------------
A---0----------------------0-----*Pick Slide*------------
E--------------------------------------------------------

Chorus/Intro

E-----------------------------------------------------
B-----------------------------------------------------
G--10-10-10---9-9-9--5-5-5--7-7-7-5-5-5-7-7-7---------
D-----------------------------------------------------
A---8--8--8---7-7-7--3-3-3--5-5-5-3-3-3-5-5-5---------
E-----------------------------------------------------
Listen to the track to determine what order you play both these in and they repeat!
E------------------------------------------
B------------------------------------------
G--10-10-10-9-9-9-12-12-12-10-10-10-9-9-9--
D------------------------------------------
A---8--8--8-7-7-7-10-10-10--8--8--8-7-7-7--
E------------------------------------------

Verse
E------------------------
B--5h6p5h6p5h6p5h6p5h68--- Repeat
G------------------------
D------------------------
A------------------------
E------------------------


Pre-Chorus

E------------------------
B------------------------ Repeat
G---5555555--------------
D---5555555------0--000---
A---3333333------0--000---
E----------------0--000---

E----------------------------
B----------------------------
G---7------------------------
D---7--------0---0---0000----
A---5--------0---0---0000----
E------------0---0---0000----

Order:
Chorus/Intro
Verse
Pre-Chorus
Chorus/Intro
Verse