A Static Lullaby — The Shooting Star That Destroyed Us All

На этой странице Вы можете ознакомиться с 2 версиями подбора аккордов для гитары к песне "The Shooting Star That Destroyed Us All" группы (исполнителя) "A Static Lullaby".

A Static Lullaby - The Shooting Star That Destroyed Us All
Tuning: D A D G

Introx1
G|--------------------------------------------------|
D|--------------------------------------------------|
A|--------------------------------------------------|
D|-3-x-------------------3-3-x----------------------|

x1
G|-------------------------------------------------|
D|-------------------------------------------------|
A|-------------------------------------------------|
D|-8/-33-33-333333-0000000000-7777777777-888888888-|

x1
G|----------------------------------------------|
D|----------------------------------------------|
A|----------------------------------------------|
D|-33-33-333333-0000000000-7777777777-888888888-|

Chorusx2
G|-------------------------------------------|
D|---------------------------77-5------88-75-|
A|-------------------------------7-----------|
D|-333333333-000000000-777777-----88888------|

Post Chorusx2
G|------------------------------------------------------|------------------|
D|------------------------------------------------------|------------------|
A|------------------------------------------------------|-5(x24)-----------|
D|-3-0~----3-0(x18)-3-0(x18)----------------------------|------------------|

Chorusx2
G|---------------------------------------------|
D|---------------------------777-5------888-75-|
A|--------------------------------7------------|
D|-333333333-000000000-777777------88888-------|

x3 x1
G|-------------|-------------|
D|-------------|-------------|
A|-5----3---55-|-5----3---5x-|
D|--02/3-3/2---|--02/3-3/2---|

x8
G|-------------|
D|-------------|
A|-5----3---55-|
D|--02/3-3/2---|

x4
G|-----------|
D|-----------|
A|-----------|
D|-0~--2~-3~-|

x2
G|--------------------------------------------------|
D|--------------------------------------------------|
A|--------------------------------------------------|
D|-777777-75-3333-2-3333-5/777777-75-3333-2-3333-5/-|

x4
G|-----------|
D|-----------|
A|-----------|
D|-0~--2~-3~-|

x2
G|----------------------------------------------------------|
D|----------------------------------------------------------|
A|---------------------------------------------------5------|
D|-000000000000-8888888888888-000000000000-88888-02/3-55/32-|

Chorusx2
G|---------------------------------------------|
D|---------------------------777-5------888-75-|
A|--------------------------------7------------|
D|-333333333-000000000-777777------88888-------|

Continue x2
G|--------------------------------------------|
D|--------------------------------------------|
A|--------------------------------------------|
D|-3333333333-0000000000-7777777777-888888888-|

End
G|----|
D|----|
A|----|
D|-3~-|
*Drop D Tuning*
e-mail jjpitcher@attbi.com

Intro
e |-------------------------------------------------------------------|
B |-------------------------------------------------------------------|
G |----5-5-5-5-5-5-5-5---2-2-2-2-2-2-2-2---10-10-10-10-10-10-10-10----|
D |---3-3-3-3-3-3-3-3---0-0-0-0-0-0-0-0---7--7--7--7--7--7--7--7------|
A |-------------------------------------------------------------------|
D |-------------------------------------------------------------------|

e |----------------------------------|
B |----------------------------------|
G |----10-10-10-10-10-10-10-10--(x2)-|
D |---8--8--8--8--8--8--8--8---------|
A |----------------------------------|
D |----------------------------------|

Verse/1stChorus
e |---------------------|--------------------------------|
B |---------------------|--------------------------------|
G |----------------(x2)-|---------------------------(x2)-|
D |--3---0---7---8------|--3---0---7---5-3-8---7-5-------|
A |--3---0---7---8------|--3---0---7---5-3-8---7-5-------|
D |--3---0---7---8------|--3---0---7---5-3-8---7-5-------|

Riff1
e |--------------------------------|----------------------------------|
B |---5---3-----6--8--6--5---------|---333---------111-1-1------------|
G |-------------------------3—(x4)-|-------333-222------------(x4)----|
D |--------------------------------|----------------(palm mute 1st 2)-|
A |--------------------------------|----------------------------------|
D |--------------------------------|----------------------------------|

2nd Chorus
e |--------------------------------|------------|
B |--------------------------------|------------|
G |---------------------------(x2)-|---7—(hold)-|
D |--3---0---7---5-3-8---7-5-------|---7--------|
A |--3---0---7---5-3-8---7-5-------|---5--------|
D |--3---0---7---5-3-8---7-5-------|------------|

Bass then
Riff2
e |----------------------------------|
B |----------------------------------|
G |---7----------5---------77---(x8)-|
D |---7---0h2h3--5—-0h2h3--77--------|
A |---5---0h2h3--3—-0h2h3--55--------|
D |-------0h2h3-----0h2h3------------|

Verse2 (your eyes…)
e |------------------|-------------------------|
B |------------------|-------------------------|
G |-------------(x4)-|--------------------(x4)-|
D |----0--2--3--—----|---5-7----5-3---2-3------|
A |----0--2--3--—----|---5-7----5-3---2-3------|
D |----0--2--3-------|---5-7----5-3---2-3------|

e |------------------|------------------------------------|
B |------------------|------------------------------------|
G |-------------(x4)-|-------------------------------(x2)-|
D |----0--2--3--—----|---0---9---0---9----0-2-0-5-3-------|
A |----0--2--3--—----|---0---9---0---9----0-2-0-5-3-------|
D |----0--2--3-------|---0---9---0---9----0-2-0-5-3-------|

Intro x1
Chorus x1
Ending
e |-------------------------------5~-5~-5~-5~-5~-5~-5~-5~3--|
B |---5-6--5-6-5-6--5-6--5-6-5-6----------------------------|
G |---------------------------------------------------------|
D |---------------------------------------------------------|
A |---------------------------------------------------------|
D |---------------------------------------------------------|