A — Bad Idea

#----------------------------------PLEASE NOTE---------------------------------#
#This file is the author's own work and represents their interpretation of the #
#song. You may only use this file for private study, scholarship, or research. #
#------------------------------------------------------------------------------#

Song: Bad Idea
Artist: 'A'
Album: How Ace Are Buildings
Tabbed by: Stuart Myers (stuart.myers@ntlworld.com)

Intro:
G--------------------------------|
D--------------------------------|
A-7-7-2-2-----0-0-7-7-2-2----0-0-|
E---------3-3-------------3-3----|

Chorus:
G-----------------------------------------------------------------|
D-----------------------------------------------------------------|
A-7-7-7-7-7-7-7-7---------------------------------7-7-7-7-7-7-7-7-|
E-----------------7-7-7-7-7-7-7-7-5-5-5-5-5-5-5-5-----------------|

1st Verse:
G-------------------------------------------------|
D-------------------------------------------------|
A-------------------------------------------------|
E-2-2-2-2-2-2-2-2-2-2-2-2-2-2-2-2-2-2-2-2-2-2-2-2-|

2nd verse:
G-------------------------------------------------|
D-------------------------------------------------|
A-------------------------------------------------|
E-3-3-3-3-3-3-3-3-3-3-3-3-3-3-3-3-3-3-3-3-3-3-3-3-|

Order is:
Intro x 4
Chorus x 2
1st Verse x 1
Chorus x 2
2nd Verse x 1
Chorus x 4
Intro x 4

It finishes on the A, not an E like you'd assume it would. :)