A — Nothing

На этой странице Вы можете ознакомиться с 5 версиями подбора аккордов для гитары к песне "Nothing" группы (исполнителя) "A".

ok its me again i no no1 looked at my last tab except tha guy who nicked it and then 
tabbed it tha same wit some crap bit
Drop D tuning

e|-------------------------------------------------------
B|-------------------------------------------------------
G|-------------------------------------------------------
D|-4444-44444-7777-0000-00000-7777-4444-44444------------
A|-4444-44444-7777-0000-00000-7777-4444-44444------------
D|-4444-44444-7777-0000-00000-7777-4444-44444------------

continued
---------------------------------------------------------
---------------------------------------------------------
---------------------------------------------------------
--7777-0000-12-00000-12----------------------------------
--7777-0000-12-00000-12----------------------------------
--7777-0000-12-00000-12----------------------------------

thats tha main riff its sounds defintely right but it mite not be tha way they play it
but its jus as gd this is tha best way, if som1 else figures this out better then put it
up. if ne1 sez this tab is crap then theyre dumbasses cos this is amazing an im only 12,
bin playin 4 2 months thats it, and i rule! email me - getcha_grooveon@hotmail.com

ask me 4 any tabs or ringtones an ill send u them. whoa ive gon on 4 ages but u dunno wat
ur missin i can make basically any ringtone of a song i no. thx c ya even if no1 reads
this. hopefully ill be tabbin alot mor stuff if u like this
Intro/ Chorus
G|-----------------------------------
D|-----------------------------------
A|-4444-444444-7777-0000-000000-7777-
E|-----------------------------------

G|-------------------------------------|
D|-------------------------------------|
A|-4444-444444-7777-000-7/12-000-7/12--|
E|-------------------------------------|

Verse
G|--------------------------------------|
D|--------------------------------------|
A|-444444444444-7777-000000000000-------|
E|--------------------------------4444--|

Bridge1
G|----------------------------------------------------------------------
D|----------------------------------------------------------------------
A|-4444444444444444-5555555555555555-7777777777777777-000000000000------
E|----------------------------------------------------------------4444--

G|----------------------------------------------------------------------|
D|----------------------------------------------------------------------|
A|-4444444444444444-5555555555555555-7777777777777777-9999999999999999--|
E|----------------------------------------------------------------------|

Bridge2
G|----------------------------------------------------------------------
D|----------------------------------------------------------------------
A|-4444444444444444-5555555555555555-7777777777777777-9999999999999999--
E|----------------------------------------------------------------------

Brigde3
G|----------------------------------------------------------------------
D|----------------------------------------------------------------------
A|-4444444444444444-5555555555555555-7777777777777777-000000000000------
E|----------------------------------------------------------------4444--

G|-------------------------------------------------------------------|
D|-------------------------------------------------------------------|
A|-4444444444444444-5555555555555555-7777777777777777-99-99-99-99-9--|
E|-------------------------------------------------------------------|

Interlude (No Bass, except at end of interlude do this)
G|-------------------|
D|-------------------|
A|44--55--77-99-94--|
E|-------------------|

Outro
G|-----------------------|
D|-----------------------|
A|-4444-444444-7777-0000-|
E|-----------------------|

Order
Intro/Chorus x2
Verse x4
Bridge1
Intro/Chorus x2
Verse x4
Bridge2
Intro/Chorus
Bridge3
Interlude
Intro/Chorus x3
Outro

The chorus is heavily improvised so feel free to email me your corrections.
Please rate. Thanks
In 99.9% Sure that this tab is right. Please shhow corrections!

Intro/ Chrous
G-----------------------------------
D-----------------------------------
A-4444-444444-7777-0000-000000-7777-
E-----------------------------------

Verse
G----------------------------------------
D----------------------------------------
A---444444444444-7777-000000000000-------
E----------------------------------4444--

Chrous
G-----------------------------------
D-----------------------------------
A-4444-444444-7777-0000-000000-7777-
E-----------------------------------

Verse
G----------------------------------------
D----------------------------------------
A---444444444444-7777-000000000000-------
E----------------------------------4444--

Chrous
G-----------------------------------
D-----------------------------------
A-4444-444444-7777-0000-000000-7777-
E-----------------------------------

I think the slide you hear is just the guitar but if you want you cand slide up
to the 12th fret when nessarcery
Thanx!
Author/Artist: A
Title: Nothing
Transcribed by: Dave Saunders
Email: ribbit@ic24.net
Tuning: Drop D

I took the time to tab out the entire song, not just the verses etc.. enjoy :]
email me feedback if you must ;]


intro & choruses:
------------------------------------------------------------------------------
------------------------------------------------------------------------------
------------------------------------------------------------------------------
-4-4-4-4--4-4-4-4-4-4-7-7-7-7-0-0-0-0--0-0-0-0-0-0-7-7-7-7--------------------
-4-4-4-4--4-4-4-4-4-4-7-7-7-7-0-0-0-0--0-0-0-0-0-0-7-7-7-7--------------------
-4-4-4-4--4-4-4-4-4-4-7-7-7-7-0-0-0-0--0-0-0-0-0-0-7-7-7-7--------------------

------------------------------------------------------------------------------
------------------------------------------------------------------------------
------------------------------------------------------------------------------
-4-4-4-4--4-4-4-4-4-4-7-7-7-7-0-0-0--h12---0-0-0-h12--0-h12-------------------
-4-4-4-4--4-4-4-4-4-4-7-7-7-7-0-0-0--h12---0-0-0-h12--0-h12-------------------
-4-4-4-4--4-4-4-4-4-4-7-7-7-7-0-0-0--h12---0-0-0-h12--0-h12-------------------


Verses:
--17-16-14---17-16-14---------------------------------------------------------
-------------------------17-15-14--15--14h15---15-14-17-15-14-----------------
------------------------------------------------------------------------------
------------------------------------------------------------------------------
------------------------------------------------------------------------------
------------------------------------------------------------------------------
play twice through, 2nd time, finger drag on the low E instead of playing the
last note (14), as you switch to play the bridge

Bridge 1:
when he start singing 'flyyyyyyy aawwaaaayyyy'..
-------------|------10-9------|-----------------------------------------------
------10-----|-----------7----|-------10---10---------------------------------
--7-9----9---|----------------|---7-9----9------------------------------------
-------------|----------------|-----------------------------------------------
-- PART 1 --|-- PART 2 --|-- PART 3 ---------------------------------
-------------|----------------|-----------------------------------------------
this appears 2 times. first time, play: Pt1 x6, Pt2, Pt1 x6 then Pt3
second time, play: Pt1 x6, Pt3

play chorus.

after that, play: (listen to the song to get the rhythm/count of strums)
----------------------------|-------------------------------------------------
----------------------------|-------------------------------------------------
----------------------------|-------------------------------------------------
-11-----12-----14------16---|----16----------4-/-1----------------------------
-11-----12-----14------16---|----16----------4-/-1----------------------------
-11-----12-----14------16---|----16----------4-/-1----------------------------
2nd time around the 16's get played a lot more &
at the end the 4's are played and dragged down &
'faded out' at fret 1. listen to the song to understand

then it goes quiet as the guy sings, play:
THAT.. MUCH.. NOTHING..NOTHING!
------------------------------------------------------------------------------
------------------------------------------------------------------------------
------------------------------------------------------------------------------
-4x-(4-4-4)--4x-(4-4-4)--4x--4x--4x---------(4-4-4)---------------------------
-4x-(4-4-4)--4x-(4-4-4)--4x--4x--4x---------(4-4-4)---------------------------
-4x-(4-4-4)--4x-(4-4-4)--4x--4x--4x---------(4-4-4)---------------------------
..... ..... ..... ..palm mute the dotted..

play the chorus 3 times and then:

------------------------------------------------------------------------------
------------------------------------------------------------------------------
------------------------------------------------------------------------------
-4-4-4-4--4-4-4-4-4-4-7-7-7-7-0-0-0-0--0-0-0-0-0-0-7-7-7-7--------------------
-4-4-4-4--4-4-4-4-4-4-7-7-7-7-0-0-0-0--0-0-0-0-0-0-7-7-7-7--------------------
-4-4-4-4--4-4-4-4-4-4-7-7-7-7-0-0-0-0--0-0-0-0-0-0-7-7-7-7--------------------

------------------------------------------------------------------------------
------------------------------------------------------------------------------
------------------------------------------------------------------------------
-4-4-4-4--4-4-4-4-4-4-7-7-7-7x------------------------------------------------
-4-4-4-4--4-4-4-4-4-4-7-7-7-7x------------------------------------------------
-4-4-4-4--4-4-4-4-4-4-7-7-7-7x------------------------------------------------
This song appears to be really simple and according to my tab it is.  Most of the song relies on one riff and it can be done loads of ways.  This is probably the easiest, simplest and best.

E-3-3-3-3-3-3-3-3-7-7-7-7-0-0-0-0-0-0-0
A-5-5-5-5-5-5-5-5-9-9-9-9-2-2-2-2-2-2-2
D-5-5-5-5-5-5-5-5-9-9-9-9-2-2-2-2-2-2-2


It repeats till the verse then stops and then comes back in for chorus. I just heard it on the radio so don't treat it as gospel. I'll change it later and I'm sure other people will modify it.

Rock on...

LosingTouch