A — Somethings Going On

На этой странице Вы можете ознакомиться с 2 версиями подбора аккордов для гитары к песне "Somethings Going On" группы (исполнителя) "A".

Artist:A
Track:Something's Going On
Album:Hi-Fi Serious

Another great song off thier new album.

Intro
G:-------------------------------------|
D:-------------------------------------|x2
A:-55555555-22222222-------------------|
E:-------------------55555555-33333333-|

Verse
G:-----------------------------------------------------|
D:-----------------------------------------------------|
A:-5555555555555555------------------------------------|
E:------------------7777777777777777-55555555555555555-|

G:------------------|
D:------------------|x2
A:------------------|
E:-3333333333333333-|

Chorus
G:------------| |-------------------| |------------|
D:-2----------|x3|-------------------|x1|-2----------|x3
A:---22-44-00-| |-7~----------------| |---22-44-00-|
E:------------| |----------77777777-| |------------|

G:-------------------|
D:-------------------|x1
A:-7~----------------|
E:----------77777777-|

Repeat Verse

Repeat Chorus

Bridge
G:-----------------------------------|
D:-----------------------------------|x3
A:-3333333333333333------------------|
E:------------------5555555555555555-|

G:-----------------------------------|
D:-----------------------------------|x1
A:-3333333333333333------------------|
E:------------------3333333333333333-|

Rest for Guitar solo thing

Repeat Chorus

Outro
G:-------------------------------------|
D:-------------------------------------|x1
A:-55555555-22222222-------------------|
E:-------------------55555555-33333333-|

G:------------------------------------------------------|
D:------------------------------------------------------|x1
A:-55555555-22222222-------------------5~-------------5-|
E:-------------------55555555-33333333------------------|
A
Something's going on
HiFi serious
tabbed by Rob Edmans robert.edmans@skateboard.com

intro - rhythm
e-------------
B-------------
G-7-----------
D-7--9--7--5--x2
A-5--9--7--5--
E----7--5--3--

intro - lead
e----2-3-7--2-3-5--0-2-3--2-0--
B-3--3-3-7--3-3-3------3-------
G-2----------------------------
D------------------------------
A------------------------------
E------------------------------


verse - rhythm
e----------------------------------
B----------------------------------
G-7-7-7-7--------------------------
D-7-7-7-7-9-9-9-9-7-7-7-7-5-5-5-5--x2
A-5-5-5-5-9-9-9-9-7-7-7-7-5-5-5-5--
E---------7-7-7-7-5-5-5-5-3-3-3-3--
All palm muted. Each chord played on the offbeat.

Chorus - rhythm
e--------- -------
B--------- -------
G-9---6--- -9-6---
D-9-9-6-7-x3 -9-6-9-
A-7-9-4-7- -7-4-9-
E---7---5- -----7-

bridge(I wanna stare at you)
e-------------- ---------
B-------------- ---------
G--------5----- -7-------
D-10--7--5--5--x2 -7-7-9-5-x2
A-10--7--3--5-- -5-7-9-5-
E-8---5-----3-- ---5-7-3-

then straight back to chorus

then intro x2. End on D5

I think its pretty much right, but the lead intro may
just be the top note if you get what i mean.