A — Starbucks

На этой странице Вы можете ознакомиться с 3 версиями подбора аккордов для гитары к песне "Starbucks" группы (исполнителя) "A".

Song: Starbucks
Artist: A
Album: Hi-Fi Serious
Tabbed By: Monkey_Guy

This song is AMAZING, enjoy!

Intro
E------12-------------12-------------12-------------12------------------
B----------12-------------12-------------10-------------10--------------
G---9----------9--11----------11--9----------9--11----------11--9-------
D-----------------------------------------------------------------------
A-----------------------------------------------------------------------
E-----------------------------------------------------------------------



E---12------------12------------12--------------12------|---------------
B-------9-------------9-------------10------10------10--|---------------
G----------9--11---------11--9----------11--------------|---------------
D-------------------------------------------------------|---------------
A-------------------------------------------------------|---------------
E-------------------------------------------------------|---------------


Verse (PM w/ 2nd Guitar - Not Needed)
E---------------------------------------|-------------------------------
B---------------------------------------|-------------------------------
G------------------4-----2-----4--7--4--|-------------------------------
D---2--6--2--6--2--4--4--2--2--4--7--4--|-------------------------------
A---2--6--2--6--2--2--4--0--2--2--5--2--|-------------------------------
E---0--4--0--4--0-----2-----0-----------|-------------------------------


Chorus
E-----------------------------------------------------------------------
B-----------------------------------------------------------------------
G------4-----2-----4-----2-----4-----2-----4--------2--------4----------
D---2--4--4--2--2--4--4--2--2--4--4--2--2--4--4-----2-----2--4--4-------
A---2--2--4--0--2--2--4--0--2--2--4--0--2--2--4-----0-----2--2--4-------
E---0-----2-----0-----2-----0-----2-----0-----2-----------0-----2-------



E------|----------------------------------------------------------------
B------|----------------------------------------------------------------
G---2--|----------------------------------------------------------------
D---2--|----------------------------------------------------------------
A---0--|----------------------------------------------------------------
E------|----------------------------------------------------------------


Bridge
E-----------------------------------------------------------------------
B---5-----------5--4-----------5-----------5--4-----------8-------------
G---4-----------4--4-----------4-----------4--4-----------7-------------
D---4-----------4--4-----------4-----------4--4-----------7-------------
A---2-----------2--2-----------2-----------2--2-----------5-------------
E-----------------------------------------------------------------------



E-----------------------------------------------------------------------
B---8--7-----------8-----------8--7-----------5-----------5--4----------
G---7--7-----------7-----------7--7-----------4-----------4--4----------
D---7--7-----------7-----------7--7-----------4-----------4--4----------
A---5--5-----------5-----------5--5-----------2-----------2--2----------
E-----------------------------------------------------------------------



E------------------------|----------------------------------------------
B------5-----------5--4--|----------------------------------------------
G------4-----------4--4--|----------------------------------------------
D------4-----------4--4--|----------------------------------------------
A------2-----------2--2--|----------------------------------------------
E------------------------|----------------------------------------------


Bridge 2
E------------------------------------------------|----------------------
B------------------------------------------------|----------------------
G---------------------2-----------------------2--|----------------------
D---2-----4-----6-----2-----2-----4-----6-----2--|----------------------
A---2-----4-----6-----0-----2-----4-----6-----0--|----------------------
E---0-----2-----4-----------0-----2-----4--------|----------------------


Order is:

Intro
Intro and/or verse
Chorus
Intro and/or verse
Chorus
Bridge
Intro
Bridge 2
Chorus
Artist:A
Track:Starbucks
Album:Hi-Fi Serious

This took me forever to sort. I think it's correct but this is 1 of my first tabs so go easy on it.

Intro
G:----------------------------------|
D:----------------------------------|x1
A:----------------------------------|
E:-00000000000000000000000000000000-|

1st Verse
G:------------| |-------------------------------------|
D:------------|x2|-------------------------------------|x1
A:----2~------| |----------22222222-------------------|
E:-0~----2~-5~| |-00000000----------22222222-55555555-|

G:-------------------------------------|
D:-------------------------------------|x1
A:----------22222222-55555555-22222222-|
E:-00000000----------------------------|

1st Chorus
G:-------------------| |-------------------|
D:-------------------|x3|-------------------|x1
A:-------------------| |----------00000000-|
E:-0---77--22--55555-| |-00000000----------|

G:-------------------|
D:-------------------|x2
A:-------------------|
E:-0---77--22--55555-|

2nd Verse
G:-------------------------------------|
D:-------------------------------------|x3
A:----------22222222-------------------|
E:-00000000----------22222222-55555555-|

G:-------------------------------------|
D:-------------------------------------|x1
A:----------22222222-55555555-22222222-|
E:-00000000----------------------------|

2nd Chorus
G:-------------------| |-------------------|
D:-------------------|x3|-------------------|x1
A:-------------------| |----------00000000-|
E:-0---77--22--55555-| |-00000000----------|

G:-------------------|
D:-------------------|x3
A:-------------------|
E:-0---77--22--55555-|

Bridge
G:----------------------------------------------------------
D:----------------------------------------------------------
A:-22222222222222222222222222222222-555555555555555555555555
E:----------------------------------------------------------

G:------------------------------------------|
D:------------------------------------------|x1`
A:55555555-22222222222222222222222222222222-|
E:------------------------------------------|

G:-------------| |-------------------------------------|
D:-------------|x2|-------------------------------------|x2
A:-------------| |-------------------------------------|
E:-0~-2~-4~-5~-| |-00000000-22222222-44444444-55555555-|

Final Chorus
G:-------------------| |-------------------| |Repeat|
D:-------------------|x3|-------------------|x1|Final |
A:-------------------| |----------00000000-| |Chorus|
E:-0---77--22--55555-| |-00000000----------| |Once |

Outro
G:-------------------| |--------------------------|
D:-------------------|x3|--------------------------|x1
A:-------------------| |--------------------------|
E:-0---77--22--55555-| |-00000000-55555555-0~---0-|

I know it looks really long but this way it's easy to read and it's all in order for you.
-------------------------------------------------------------------------------
A - Starbucks
-------------------------------------------------------------------------------

Tabbed by: Ste Foy
Email: Insultme13@hotmail.com

Tuning: Standard tuning (EADGBE)

Im not 100% sure about this, especially the verse but it sounds OK.

There is a little keyboard bit at the start. Then guitar enters with:
e|---------------------------------------------------------------------------|
B|---------------------------------------------------------------------------|
G|-9-------------------------------------------------------------------------|
D|-9-------------------------------------------------------------------------|
A|-7-------------------------------------------------------------------------|
E|--0-0-0-0-0-0-0-0-0-0-0-0-0-0-0-0------------------------------------------|
PM-------------------------------l Slowly build up

Intro/Verse (clean)
e|---12------12-----12-----12---1---12-------12------------------------------|
B|------11------11------------10-------10------------------------------------|
G|----------------------------------------------------x2---------------------|
D|-9-------9------9-----11-------11-------11---------------------------------|
A|---------------------------------------------------------------------------|
E|---------------------------------------------------------------------------|

Verse (guitar 2)
e|---------------------------------------------------------------------------|
B|--------------------------------6-6-6-6-6-6-6-6-9-9-9-9-9-9-9-9------------|
G|--------------------------------4-4-4-4-4-4-4-4-7-7-7-7-7-7-7-7------------|
D|-9-9-9-9-9-9-9-9-----------------------------------------------------------|
A|-7-7-7-7-7-7-7-7-9-9-9-9-9-9-9-9-------------------------------------------|
E|-----------------7-7-7-7-7-7-7-7-------------------------------------------|
Palm mute but put an accent on every 4th note

e|---------------------------------------------------------------------------|
B|---------------------------------------------------------------------------|
G|---------------------------------------------------------------------------|
D|-9-9-9-9-9-9-9-9-----------------7-7-7-7-7-7-7-7-4-4-4-4-4-4-4-4-----------|
A|-7-7-7-7-7-7-7-7-9-9-9-9-9-9-9-9-5-5-5-5-5-5-5-5-2-2-2-2-2-2-2-2-----------|
E|-----------------7-7-7-7-7-7-7-7-------------------------------------------|
Pm------------ pm------------ w/dist

Chorus w/dist
e|---------------------------------------------------------------------------|
B|--------------6-x-x--9-x-x-------------------------------------------------|
G|-9-x-x--------6-x-x--9-x-x----------------------6-6-6-6-6-6-6-6-9-9-9-9-9-9|
D|-9-x-x-9-x-x--4-x-x--7-x-x—-x3—-on 4th time play—4-4-4-4-4-4-4-4-7-7-7-7-7-7|
A|-7-x-x-9-x-x---------------------------------------------------------------|
E|-------7-x-x---------------------------------------------------------------|

e|---------------------------------------------------------------------------|
B|---------------------------------------------------------------------------|
G|-9-x-x----------------2-x-x------------------------------------------------|
D|-9-x-x--9-x-x--4-x-x--2-x-x-—x4--------------------------------------------|
A|-7-x-x--9-x-x--4-x-x--0-x-x------------------------------------------------|
E|--------7-x-x--2-x-x-------------------------------------------------------|

Bridge
e|-----0----0------------------------0---0---------12--12-12-12--------------|
B|---0----0----0--4----4---4-------0---0---0--8----10--10-10-10--------------|
G|-------------------3---3---3-------------------8---------------------------|
D|-4-----------------------------4-------------------------------------------|
A|---------------------------------------------------------------------------|
E|---------------------------------------------------------------------------|

Then verse for 4 bars, then, over it
e|---------------------------------------------------------------------------|
B|---------------------------------------------------------------------------|
G|---------------------------------------------------------------------------|
D|---------------------------------------------------------------------------|
A|-3-3-3-3-4-4-4-4-5-5-5-5-7-7-7-7-------------------------------------------|
E|-1-1-1-1-2-2-2-2-3-3-3-3-5-5-5-5-------------------------------------------|

Chorus w/dist
e|---------------------------------------------------------------------------|
B|--------------6-x-x--9-x-x-------------------------------------------------|
G|-9-x-x--------6-x-x--9-x-x----------------------6-6-6-6-6-6-6-6-9-9-9-9-9-9|
D|-9-x-x-9-x-x--4-x-x--7-x-x—-x3—-on 4th time play—4-4-4-4-4-4-4-4-7-7-7-7-7-7|
A|-7-x-x-9-x-x---------------------------------------------------------------|
E|-------7-x-x---------------------------------------------------------------|

e|---------------------------------------------------------------------------|
B|---------------------------------------------------------------------------|
G|-9-x-x----------------2-x-x------------------------------------------------|
D|-9-x-x--9-x-x--4-x-x--2-x-x-—x4--------------------------------------------|
A|-7-x-x--9-x-x--4-x-x--0-x-x------------------------------------------------|
E|--------7-x-x--2-x-x-------------------------------------------------------|



Pm------ palm mute
X - Scratch note – play without pressing down on string

===============================================================================