Aaliyah — Journey To The Past

На этой странице Вы можете ознакомиться с 2 версиями подбора аккордов для гитары к песне "Journey To The Past" группы (исполнителя) "Aaliyah".

k i tryed to do titanic but ended up with this
journay to the past


Heart dont fail me now Courage don't desert me, dont turn back now that were here
e |---3---2-3--5-3----3---2-3--5--7--5---3---2-3--5--3-2-3----|
b |-----------------------------------------------------------|
g |-----------------------------------------------------------|
d |-----------------------------------------------------------|
a |-----------------------------------------------------------|
e |-----------------------------------------------------------|


People always say life is full of choices No one ever mentions fear

e |---5---4-5--7-5----5---4-5--7--9--7---5---4-5--7--5-4-5----|
b |-----------------------------------------------------------|
g |-----------------------------------------------------------|
d |-----------------------------------------------------------|
a |-----------------------------------------------------------|
e |-----------------------------------------------------------|

This is all i got tho its kool... im gona try finish tabbing the song but
i dunno.. seems boring.. anyways.. PEACE!!
Olga Aka:surfergirl
if anything...
olga7000@hotmail.com
Here's one of my first tabs. Its the whole song, so i hope i didn't mess up.
Sounds pretty good to me though:


Heart don't fail me now, Courage don't desert me, dont turn back now that were here.
e |---3-2-3-5-3----3-2-3-5-7-5----7-5-7-8-7-3-5----------------------|
b |------------------------------------------------------------------|
g |------------------------------------------------------------------|
d |------------------------------------------------------------------|
a |------------------------------------------------------------------|
e |------------------------------------------------------------------|


People always say life is full of choices, No one ever mentions fear.

e |---6-5-6-8-6----6-5-6-8-10-8----10-9-10-12-14-10-14---------------|
b |------------------------------------------------------------------|
g |------------------------------------------------------------------|
d |------------------------------------------------------------------|
a |------------------------------------------------------------------|
e |------------------------------------------------------------------|


Or how the road can seem so long, How the road can seem so vast.

e |---6--13-11-13-15-13-11-13----13-11-13-15-13-11-13----------------|
b |------------------------------------------------------------------|
g |------------------------------------------------------------------|
d |------------------------------------------------------------------|
a |------------------------------------------------------------------|
e |------------------------------------------------------------------|


Courage see me through, heart I'm trusting you, On this journey to the past.
e |---13-11-13-15-13----13-10-15-10-8----13-11-13-15----3-6--13------|
b |------------------------------------------------------------------|
g |------------------------------------------------------------------|
d |------------------------------------------------------------------|
a |------------------------------------------------------------------|
e |------------------------------------------------------------------|


Somewhere down this road, I know someone's waiting, Years of dreams just can't be wrong.
e |---3-2-3-5-3----3-2-3-5-7-5----7-5-7-8-7-3-5----------------------|
b |------------------------------------------------------------------|
g |------------------------------------------------------------------|
d |------------------------------------------------------------------|
a |------------------------------------------------------------------|
e |------------------------------------------------------------------|


Arms will open wide, I'll be safe and wanted, Finally home where I belong.

e |---6-5-6-8-6----6-5-6-8-10-8----10-9-10-12-14-10-14---------------|
b |------------------------------------------------------------------|
g |------------------------------------------------------------------|
d |------------------------------------------------------------------|
a |------------------------------------------------------------------|
e |------------------------------------------------------------------|


Well starting here my life begins, Starting now I'm learning fast.

e |---6--13-11-13-15-13-11-13----13-11-13-15-13-11-13----------------|
b |------------------------------------------------------------------|
g |------------------------------------------------------------------|
d |------------------------------------------------------------------|
a |------------------------------------------------------------------|
e |------------------------------------------------------------------|


Courage see me through, heart I'm trusting you. On this journey, to the past.

e |---13-11-13-15-13----13-10-15-10-8----13-11-13-15----3-6--13------|
b |------------------------------------------------------------------|
g |------------------------------------------------------------------|
d |------------------------------------------------------------------|
a |------------------------------------------------------------------|
e |------------------------------------------------------------------|

I HAVEN'T FINISHED TABBING THE WHOLE SONG YET. THERE'S A WHOLE NOTHER VERSE TO
THIS AND AN ENDING THAT I HAVEN'T TABBED. I'LL FINISH IT SOON.