Ac Dc — Breaking The Rules

Breaking the rules by AC/DC
Standard Tuning

(Intro)
G:---------------------------|
D:--------------------------5|
A:4-5----5-4----4-5----5-4---|
E:---------------------------|

G:-------------------------------|
D:--------------------------5-4--|
A:4-5----5-4----4-5----5-4------7|
E:-------------------------------|

G:---------------------------| |---------------|
D:---------------------------| x4 |0-1-2-3--------|
A:4-4-4--3-3-3--2-2-2--1-1-1-| |--------1-1-1-1|
E:---------------------------| |---------------|

(Chorus)
G:----------------|
D:-----------5-4--| x2
A:4-5---5-4------7|
E:----------------|

G:---------------------------| |---------------|
D:---------------------------| x4 |0-1-2-3--------|
A:4-4-4--3-3-3--2-2-2--1-1-1-| |--------1-1-1-1|
E:---------------------------| |---------------|

G:----------------|
D:-----------5-4--| x2
A:4-5---5-4------7|
E:----------------|

G:---------------------------| |---------------|
D:---------------------------| x2 |0-1-2-3--------|
A:4-4-4--3-3-3--2-2-2--1-1-1-| |--------1-1-1-1|
E:---------------------------| |---------------|

G:------------------------|
D:-------------------5-4--| x7
A:4-5----5-4--4-5-7------7|
E:------------------------|

G:-----------------------------|
D:------------5-4---5-4---5-4--|
A:4-5----5-4------7-----7-----7|
E:-----------------------------|

G:----------------|
D:-----------5-4--| x5 (fades out)
A:4-5---5-4------7|
E:----------------|

Thanks, please rate it after you learn it.
Tabbed by:
_TheBassist01_