Ac Dc — Cant Hold Me Back

Can't Hold Me Back

Please note the additional chords during chorus!

Intro Angus:
E|------------------------|----------------------------------|
B|------------12--13--15--|--13--12--13--15--13--12--13--15--|
G|------------12--12--12--|--12--12--12--12--12--12--12--12--|
D|------------------------|----------------------------------|
A|------------------------|----------------------------------|
E|------------------------|----------------------------------|

|--------------------------------|----------------------------------|
|--13--12--13--15----12--13--15--|--13--12--13--15--13--12--13--15--|
|--12--12--12--12----12--12--12--|--12--12--12--12--12--12--12--12--|
|--------------------------------|----------------------------------|
|--------------------------------|----------------------------------|
|--------------------------------|----------------------------------|


|--------------------------------|----------------------------------|
|--13--12------12----12--13--15--|--13--12--13--15--13--12--13--15--|
|--12--12--12--12----12--12--12--|--12--12--12--12--12--12--12--12--|
|--------------------------------|----------------------------------|
|--------------------------------|----------------------------------|
|--------------------------------|----------------------------------|
| with Malcolm: | |
|--------------------------------|----------------------------------|
|--------------------------------|----------------------------------|
|--------------------------------|----------------------------------|
|---------------------5---5---5--|---5---5---5---5---5---5---5---5--|
|---------------------5---7---8--|---7---5---7---8---7---5---7---8--|
|--------------------------------|----------------------------------|


|--------------------------------|----------------------------------|
|--13--12--13--15----12--13--15--|--13--12--13--15--13--12--13--15--|
|--12--12--12--12----12--12--12--|--12--12--12--12--12--12--12--12--|
|--------------------------------|----------------------------------|
|--------------------------------|----------------------------------|
|--------------------------------|----------------------------------|
| | |
|--------------------------------|----------------------------------|
|--------------------------------|----------------------------------|
|--------------------------------|----------------------------------|
|---5---5-------5-----5---5---5--|---5---5---5---5---5---5---5---5--|
|---7---5---5---5-----5---7---8--|---7---5---7---8---7---5---7---8--|
|--------------------------------|----------------------------------|

I got a big...
|-----------------------------|--------------------------|
|--13--12------12----3--5--6--|--5--3--5--6--5--3--5--6--|
|--12--12--12--12----0--0--0--|--0--0--0--0--0--0--0--0--|
|-----------------------------|--------------------------|
|-----------------------------|--------------------------|
|-----------------------------|--------------------------|
| | |
|-----------------------------|--------------------------|
|-----------------------------|--------------------------|
|-----------------------------|--------------------------|
|---5---5-------5----5--5--5--|--5--5--5--5--5--5--5--5--|
|---7---5---5---5----5--7--8--|--7--5--7--8--7--5--7--8--|
|-----------------------------|--------------------------|

I got a... Got a...
|-------------------------|--------------------------|-------------------------|
|--5--3-----5----3--5--6--|--5--3--5--6--5--3--5--6--|--5--3--0-------3--5--6--|
|--0--0--4--5----0--0--0--|--0--0--0--0--0--0--0--0--|--0--0--0--0----0--0--0--|
|-------------------------|--------------------------|-----------0-------------|
|-------------------------|--------------------------|-------------------------|
|-------------------------|--------------------------|-------------------------|
| | | |
|-------------------------|--------------------------|-------------------------|
|-------------------------|--------------------------|-------------------------|
|-------------------------|--------------------------|-------------------------|
|--5--5-----5----5--5--5--|--5--5--5--5--5--5--5--5--|--5--5-----5----5--5--5--|
|--7--5--5--3----5--7--8--|--7--5--7--8--7--5--7--8--|--7--5--5--5----5--7--8--|
|-------------------------|--------------------------|-------------------------|

Got a...
|--------------------------|-------------------------|--------------------------|
|--5--3--5--6--5--3--5--6--|--5--3-----5----3--5--6--|--5--3--5--6--5--3--5--6--|
|--0--0--0--0--0--0--0--0--|--0--0--4--5----0--0--0--|--0--0--0--0--0--0--0--0--|
|--------------------------|-------------------------|--------------------------|
|--------------------------|-------------------------|--------------------------|
|--------------------------|-------------------------|--------------------------|
| | | |
|--------------------------|-------------------------|--------------------------|
|--------------------------|-------------------------|--------------------------|
|--------------------------|-------------------------|--------------------------|
|--5--5--5--5--5--5--5--5--|--5--5-----5----5--5--5--|--5--5--5--5--5--5--5--5--|
|--7--5--7--8--7--5--7--8--|--7--5--5--3----5--7--8--|--7--5--7--8--7--5--7--8--|
|--------------------------|-------------------------|--------------------------|


to chorus: can't hold me back
|---------------------|----------|----------------------------------|
|--5--3---------------|----------|------12--13--15--13--12--13--15--|
|--0--0----0----------|----------|------12--12--12--12--12--12--12--|
|----------0----------|----------|----------------------------------|
|---------------------|----------|----------------------------------|
|----------3----------|----------|----------------------------------|
| | | F |
|---------------------|----------|----------------------------------|
|---------------------|----------|----------------------------------|
|---------------------|----------|----------------------------------|
|--5--5----5----------|----------|--10--10--10--10--10--10--10--10--|
|--7--5----5----------|----------|-- 8---8---8---8---8---8---8---8--|
|----------3----------|----------|----------------------------------|

can't hold me back
|----------------------------------|----------------------------------|
|--13--12--13--15------12--13--15--|--13--12--13--15--13--12--13--15--|
|--12--12--12--12------12--12--12--|--12--12--12--12--12--12--12--12--|
|----------------------------------|----------------------------------|
|----------------------------------|----------------------------------|
|----------------------------------|----------------------------------|
| C | G |
|----------------------------------|----------------------------------|
|----------------------------------|----------------------------------|
|----------------------------------|----------------------------------|
|--10--10--10--10--10--10--10--10--|---5---5---5---5---5---5---5---5--|
|---7---7---7---7---7---7---7---7--|---5---5---5---5---5---5---5---5--|
|----------------------------------|----------------------------------|

can't hold me back
|----------------------------------|----------------------------------|
|--13--12--13--15------12--13--15--|--13--12--13--15--13--12--13--15--|
|--12--12--12--12------12--12--12--|--12--12--12--12--12--12--12--12--|
|----------------------------------|----------------------------------|
|----------------------------------|----------------------------------|
|----------------------------------|----------------------------------|
| | F |
|----------------------------------|----------------------------------|
|----------------------------------|----------------------------------|
|----------------------------------|----------------------------------|
|---5---5---5---5---5---5---5---5--|--10--10--10--10--10--10--10--10--|
|---5---5---5---5---5---5---7---8--|--8---8---8---8---8---8---8---8---|
|----------------------------------|----------------------------------|

..attack can't hold me back
|----------------------------------|----------------------------------|
|--13--12--13--15------12--13--15--|--13--12--13--15--13--12--13--15--|
|--12--12--12--12------12--12--12--|--12--12--12--12--12--12--12--12--|
|----------------------------------|----------------------------------|
|----------------------------------|----------------------------------|
|----------------------------------|----------------------------------|
| C | G |
|----------------------------------|----------------------------------|
|----------------------------------|----------------------------------|
|----------------------------------|----------------------------------|
|--10--10--10--10--10--10--10--10--|---5---5---5---5---5---5---5---5--|
|---7---7---7---7---7---7---7---7--|---5---5---5---5---5---5---5---5--|
|----------------------------------|----------------------------------|

to verse: Got a...
|----------------------------------|--------------------------|
|--13--12------15-------3---5---6--|--5--3--5--6--5--3--5--6--|
|--12--12------12-------0---0---0--|--0--0--0--0--0--0--0--0--|
|----------------------------------|--------------------------|
|----------------------------------|--------------------------|
|----------------------------------|--------------------------|
| | |
|----------------------------------|--------------------------|
|----------------------------------|--------------------------|
|----------------------------------|--------------------------|
|---5---5---5---5---5---5---5---5--|--5--5--5--5--5--5--5--5--|
|---5---5---5---5---5---5---7---8--|--7--5--7--8--7--5--7--8--|
|----------------------------------|--------------------------|


after 2nd chorus:
|----------------------------------|------------------------------|
|--13--12--13--15--13--12--13--15--|--13--12--13--15-----------3--|
|--12--12--12--12--12--12--12--12--|--12--12--12--12-----------4--|
|----------------------------------|---------------------------5--|
|----------------------------------|---------------------------5--|
|----------------------------------|---------------------------3--|
| F | C |
|----------------------------------|------------------------------|
|----------------------------------|------------------------------|
|----------------------------------|------------------------------|
|--10--10--10--10--10--10--10--10--|--10--10--10--10--5--5--5--5--|
|---8---8---8---8---8---8---8---8--|---7---7---7---7--5--5--5--5--|
|----------------------------------|------------------3--3--3--3--|

on solo part play some chord changes G - C