Ac Dc — Come And Get It

Artist: AC DC
Song: Come And Get It
Tabbed by: John Leadman


Intro:

E|---------------------------|---------------------------|
B|---------------------------|---------------------------|
G|--5--2-----2~---0----------|--5--2-----2~---0----------|
D|--5--2-------------0-1-2---|--5--2-------------0-1-2---|
A|--3--0--0----------------0-|--3--0--0----------------0-|
E|---------------------------|---------------------------|

picking up...
|---------------------------|----------------------|------------------|
|---------------------------|----------------------|------------------|
|--5--2-----2~---0----------|--5--2-----2----------|------------------|
|--5--2-------------0-1-2---|--5--2-----2----------|------------------|
|--3--0--0----------------0-|--3--0--0--0----------|------------------|
|---------------------------|----------------------|------------------|

hell no distance...
|---------------------------|-------------------|---------------------------|
|---------------------------|-------------------|---------------------------|
|-----------2~---0----------|-------------------|-----------2~---0----------|
|--5--2-------------0-1-2---|-------------------|--5--2-------------0-1-2---|
|--3--0--0----------------3-|--0----------------|--3--0--0----------------3-|
|---------------------------|-------------------|---------------------------|

burning down... don't you...
|-------------------|---------------------------|-------------------|
|-------------------|---------------------------|-------------------|
|-------------------|-----------2~---0----------|-------------------|
|-------------------|--5--2-------------0-1-2---|-------------------|
|--0----------------|--3--0--0----------------3-|--0----------------|
|-------------------|---------------------------|-------------------|

these are...
|------------------------|-------------------|------------------------|
|------------------------|-------------------|------------------------|
|--5--5-----5---------5--|--5----------------|--5--5-----5---------5--|
|--7--7--5--7----5----7--|--7----------------|--7--7--5--7----5----7--|
|--5--5--5--5----5----5--|--5----------------|--5--5--5--5----5----5--|
|--------3-------3-------|-------------------|--------3-------3-------|

don't think... I've got my...
|-------------------|------------------------|-------------------|
|-------------------|------------------------|-------------------|
|--5----------------|--7--7-----7---------7--|--7----------------|
|--7----------------|--9--9--7--9----7----9--|--9----------------|
|--5----------------|--7--7--7--7----7----7--|--7----------------|
|-------------------|--------5-------5-------|-------------------|

upon my... ...want it come and get it
|------------------------|-------------------|--------------------------|
|--3--3--2--3----2-------|-------------------|--------------------------|
|--2--2--2--2----2-------|-------------------|----------2~---0----------|
|--0--0--2--0----2----2--|--2----------------|--5--2------------0-1-2---|
|--0--0--0--0----0----2--|--2----------------|--3--0------------------3-|
|---------------------0--|--0----------------|--------------------------|

(come and get it) want it come and get it (come and get it)
|-------------------|--------------------------|-------------------|
|-------------------|--------------------------|-------------------|
|-------------------|----------2~---0----------|-------------------|
|-------------------|--5--2------------0-1-2---|-------------------|
|--0----------------|--3--0------------------3-|--0----------------|
|-------------------|--------------------------|-------------------|

want it come and get it (come and get it) want it come and get it
|--------------------------|-------------------|--------------------------|
|--------------------------|-------------------|--------------------------|
|----------2~---0----------|-------------------|----------2~---0----------|
|--5--2------------0-1-2---|-------------------|--5--2------------0-1-2---|
|--3--0------------------3-|--0----------------|--3--0------------------0-|
|--------------------------|-------------------|--------------------------|

2nd verse:
|----------------------|------------------|
|----------------------|------------------|
|--5--2-----2----------|------------------|
|--5--2-----2----------|------------------|
|--3--0--0--0----------|------------------|
|----------------------|------------------|

after 2nd chorus to solo part:

want it come and get it
|----------------------|----------------------|----------------------|
|----------------------|----------------------|----------------------|
|----------------------|--5--2-----2----------|-----------2----------|
|--5--2------5--2------|--5--2-----2----------|-----------2----------|
|--3--0------3--0------|--3--0--0--0----------|--3--0--0-------------|
|----------------------|----------------------|----------------------|

|----------------------|-------------------------|----------------------|
|----------------------|-------------------------|----------------------|
|-----------2----------|-----------2-------------|-----------2----------|
|-----------2----------|-----------2-------------|-----------2----------|
|--3--0--0--0----------|--3--0--0--0----0--0--0--|--3--0--0--0----------|
|----------------------|-------------------------|----------------------|

solo:

|----------------------|----------------------|----------------------|
|----------------------|----------------------|----------------------|
|----------------------|----------------------|----------------------|
|--5--2--2--2----------|--5--2--2--2----------|--5--2--2--2----------|
|--5--2--2--2----------|--5--2--2--2----------|--5--2--2--2----------|
|--3--0--0--0----------|--3--0--0--0----------|--3--0--0--0----------|

|----------------------|------------------------|-----------------------|
|----------------------|------------------------|----------------3------|
|----------------------|-----2--2-------2--2----|-----2--2--2----2------|
|--5--2--2--2----------|--5--2--2----5--2--2----|--5--2--2--2----0------|
|--5--2--2--2----------|--3--0--0----3--0--0----|--3--0--0--0-----------|
|--3--0--0--0----------|------------------------|-----------------------|

|------------------------|-----------------------|------------------------|
|------------------------|----------------3------|------------------------|
|-----2--2-------2--2----|-----2--2--2----2------|-----2--2-------2--2----|
|--5--2--2----5--2--2----|--5--2--2--2----0------|--5--2--2----5--2--2----|
|--3--0--0----3--0--0----|--3--0--0--0-----------|--3--0--0----3--0--0----|
|------------------------|----------------2------|------------------------|

|-----------------------|------------------------|-------------------------|
|----------------3------|------------------------|-------------------------|
|-----2--2--2----2------|--5--5-----5---------5--|--5----5--5--5--5--5--5--|
|--5--2--2--2----0------|--7--7--5--7----5----7--|--7----7--7--7--7--7--7--|
|--3--0--0--0-----------|--5--5--5--5----5----5--|--5----5--5--5--5--5--5--|
|-----------------------|--------3-------3-------|-------------------------|

want it come and
|------------------------|-------------------|----------------------|
|------------------------|-------------------|----------------------|
|--7--7-----7------------|-------------------|----------------------|
|--9--9--7--9----7----2--|--2----------------|--5--2----------------|
|--7--7--7--7----7----2--|--2----------------|--3--0----------5--7--|
|--------5-------5----0--|--0----------------|----------------3--5--|

get it want it come and get it
|--------------------|----------------------|--------------------|
|--------------------|----------------------|--------------------|
|--------------------|----------------------|--------------------|
|--5--2--------------|--5--2----------------|--5--2--------------|
|--3--0--------------|--3--0----------5--7--|--3--0--------------|
|--------------------|----------------3--5--|--------------------|

pattern till end:

|--------------------------|----------------------|--------------------------|---------------|
|--------------------------|-------------3-3--3---|--------------------------|-------3--3----|
|----------2~---0----------|-------------2-2--2---|----------2~---0----------|-------2--2----|
|--5--2------------0-1-2---|--2----------0-0--0---|--5--2------------0-1-2---|--2----0--0----|
|--3--0------------------3-|--0-------------------|--3--0------------------3-|--0------------|
|--------------------------|----------------------|--------------------------|---------------|