Ac Dc — Flick Of The Switch

FLICK OF THE SWITCH  by  AC/DC
From the Album Flick of the Switch


INTRO

A C D
|-----------2------------------|-----------2------------|------------------|
|-----------3------------------|-----------3--(Sustain--|------------------|
|--2--5-----2------------------|--2--5-----2---here-)---|------------------|
|--2--5-----0------------------|--2--5-----0------------|------------------|
|--0--3--0--------------2-3-2--|--0--3--0---------------|-----------2-3-2--|
|--------------0-1-2-3---------|------------------------|--0-1-2-3---------|


VERSE
(Basically same as intro)

A C D
|-----------2-------------------| Well there's love gone down the line
|-----------3-------------------| Suicidal balls and chains
|--2--5-----2-------------------| She sends signals out of distress
|--2--5-----0-------------------| She trouble she evil
|--0--3--0---------------2-3-2--|
|---------------0-1-2-3---------|


|----------------------------------------|--------|
|--------3---------3---------3---------3-|--------|
|--------2---------2---------2---------2-|--------|She gets you reelin' on her
|--------0---------0---------0---------0-|--------| rockin' machine
|--0--3------0--3------0--3------0--3----|-0-3~~~-|
|----------------------------------------|--------|

|--------------------|--------------------|------------------|----3--2--|
|--------------------|--------------------|------------------|----3--3--|
|-------------5--7-7-|--------------------|-------------5--7-|-7--0--2--|
|--2-2-2-2-2--5--7-7-|--------------------|--2-2-2-2-2--5--7-|-7--0--0--|
|--0-0-0-0-0--3--5-5-|--5--7~~~--5--3~~~--|--0-0-0-0-0--3--5-|-5--2-----|
|--------------------|--------------------|------------------|----3-----|

(Lyrics for the riff above:)

With a flick of the switch
She'll blow you up sky high
With a flick of the switch
she can satisfy
With a flick of the switch
she's gonna burn you down
With a flick of the switch
she can (crash) satisfy

|--2-----3--2-----2-----3--2--|
|--3-----3--3-----3-----3--3--|
|--2-----0--2-----2-----0--2--|
|--0-----0--0--0--0-----0--0--|
|--------2--------------2-----|
|-----0--3-----------0--3-----|