Ac Dc — Givin The Dog A Bone

Artist: AC/DC
Song: Given The Dog A Bone
Tabbed by: John Leadman

Intro + Verse:
E|--------------------------|--------------------------|
B|--------------------------|--------------------------|
G|--2--2--2--2--2--2--2--2--|--2--2--2--2--2--2--2--2--|
D|--x--2--2--x--2--2--x--2--|--2--x--2--2--x--2--2--2--|
A|--3--0--0--5--0--0--3--0--|--0--5--0--0--3--0--0--x--|
E|--------------------------|-----------------------3--|


Pre Chorus (2x):
|-----------------------|-------------------------|
|-----------3-----------|-------------------------|
|-----------2-----------|-------------------------|
|-----------0--------2--|--x--2--2--x--2--x--2----|
|--3--2--0--0--------0--|--3--0--0--5--0--3--0----|
|-----------------------|-------------------------|

|-----------------------|--------------------------|
|-----------3-----------|--------------------------|
|-----------2-----------|--------------------------|
|-----------0-----------|--x--2--2--x--2--x--2-----|
|--3--2--0--0--------0--|--3--0--0--5--0--3--0-----|
|-----------------------|-----------------------0--|


Chorus:
|------------------------|------------------------|------------------------|
|------------------------|------------------------|------------------------|
|-----------2------------|------------------------|------------------------|
|-----------2------------|-----------2------------|-----------2------------|
|--x--2--2--0-------2----|--x--2--2--0-------2----|--x--2--2--0-------2----|
|--3--0--0-------3--0----|--3--0--0-------3--0----|--3--0--0-------3--0----|

|------------------------|------------------------|------------------------|
|------------------------|------------------------|------------------------|
|------------------------|------------------------|------------------------|
|-----------2------------|-----------2------------|-----------2------------|
|--x--2--2--0-------2----|--x--2--2--0-------2----|--x--2--2--0-------2----|
|--3--0--0-------3--0----|--3--0--0-------3--0----|--3--0--0-------3--0----|

|------------------------|------------------------||
|------------------------|------------------------||
|------------------------|------------------------||
|-----------2------------|-----------2------------||
|--x--2--2--0-------2----|--x--2--2--0-------2----||
|--3--0--0-------3--0----|--3--0--0-------3--0----||