Ac Dc — Gone Shootin

AC/DC - Gone Shootin'


INTRO:

e -----------------------------------------------------------------------
B -----------------------------------------------------------------------
G ---11--------------11--------------11--------------11------------------
D ---11--------------11--------------11--------------11------------------
A ---9---------7--s--9---------7--s--9---------7--s--9---------7---------
E ---9-----7h9-------9-----7h9-------9-----7h9-------9-----7h9-----------

MAIN RIFF:

e -------2---2--x--0---0--------------------2--2--x--0---0---------------
B -----------2--x--0---0---4-------------------2--x--0---0---4-----------
G ---2h3-------------------4---2h3------2h3------------------4---2h3-----
D ---------------------------------4---------------------------------4---
A -----------------------------------------------------------------------
E -----------------------------------------------------------------------

And then this:

e ------------------------------------------2--2--x--0---0---------------
B ---6------------4-----------2----------------2--x--0---0---4-----------
G ---6------------4-----------2---------2h3------------------4---2h3-----
D ---6------------4-----------2--------------------------------------4---
A ---4------------2-----------0------------------------------------------
E -----------------------------------------------------------------------

Extro: ( I think it's something like this :)

e --------2-------0-------0---------------0------------------------------
B --------2-------0-------0-------4-------0-------4----------------------
G ---2h3------------------1-------4-------1-------4----------------------
D ------------------------2-------4-------2-------4-------4--------------
A ----------------------------------------2-------2-------4--------------
E ----------------------------------------0---------------2--------------

And then play this: ( again, this may not be correct )

e -----------------------------------------------------------------------
B ---------------2------------------------------2-----------2------------
G ------2--3--4-----4--2--4------------2--3--4-----4--2--4--2------------
D ---4-----------------------4--4---4------------------------------------
A -----------------------------------------------------------------------
E -----------------------------------------------------------------------