Ac Dc — Got You By The Balls

got you by the balls:by KnwR
Intro:
e|----3-------------------3--3-----3-----------------------------------------
B|----2-------------------0--2-----2-----------------------------------------
G|-2--0--2--2-----2----2--0--0--2--0-----------------------------------------
D|-2-----2--2--5--2----2--------2--------------------------------------------
A|-0-----0--0--3--0----0--------0--------------------------------------------
E|---------------------------------------------------------------------------

Verse: the verse has a different timing then the intro.
e|----3-----------------3--3-----3-------------------------------------------
B|----2-----------------0--2-----2-------------------------------------------
G|-2--0--2--2-----2--2--0--0--2--0-------------------------------------------
D|-2-----2--2--5--2--2--------2----------------------------------------------
A|-0-----0--0--3--0--0--------0----------------------------------------------
E|---------------------------------------------------------------------------

Chorus: the chorus has a different timing then the verse and intro.
e|-3-----------------3--3-----3----------3-----------------3--3-----3--------
B|-2-----------------0--2-----2----------2-----------------0--2-----2--------
G|-0--2--2-----2--2--0--0--2--0-------2--0--2--2-----2--2--0--0--2--0--------
D|----2--2--5--2--2--------2----------2-----2--2--5--2--2--------2-----------
A|----0--0--3--0--0--------0----------0-----0--0--3--0--0--------0-----------
E|---------------------------------------------------------------------------

Before Solo:
e|----3----------------------------------------------------------------------
B|----2----------------------------------------------------------------------
G|----0----------------------------------------------------------------------
D|-2-----2--2-----2----------------------------------------------------------
A|-2-----2--2--5--2----------------------------------------------------------
E|-0-----0--0--3--0----------------------------------------------------------


| / slide up
| slide down
| h hammer-on
| p pull-off
| ~ vibrato
| + harmonic
| x Mute note