Ac Dc — Have A Drink On Me

Intro/chorus
---2-----0-----------2----------------------------------------------|
-2-3-3/5---3-1-----2-3----------------------------------------------|
-2-2-----------2-0-2-2----------------------------------------------|
-2-----------------2------------------------------------------------|
-----------------------3-0-3-0--------------------------------------|
--------------------------------------------------------------------|

Verse:
----------------2-2-2-2--2------------------2-2-2-2--2---------------|
-2-2-2-2--2-----3-3-3-3--3----2-2-2-2--2----3-3-3-3--3---------------|
-2-2-2-2--2-----2-2-2-2--2----2-2-2-2--2----2-2-2-2--2---------------|
-2-2-2-2--2-------------------2-2-2-2--2-----------------------------|
---------------------------------------------------------------------|
---------------------------------------------------------------------|
The verse is real easy, it's just an A chord and a D chord back and
forth in every other line in the verses.