Ac Dc — Hell Aint A Bad Place To Be

Hell Ain't A Bad Place To Be by AC/DC

Tabbed by dr.krakpot

G5 D/F# G5 D/F# G5 D/F# A
e|--3----2----3--|-2----3----2--|--------------|--------------|
b|--3----3----3--|-3----3----3--|2-------------|--------------|
g|--0----2----0--|-2----0----2--|2-------------|--------------|
D|--0----0----0--|-0----0----0--|2-------------|--------------| 4 Times!
A|---------------|--------------|0-------------|--------------|
E|--3----2----3--|-2----3----2--|--------------|--------------|

Pattern 1 | 2 x ! /|
e|--------------|--------------|--------------|--------------||-------------||
b|--------------|--------------|--------------|--------------||---2-2-2-----||
g|--------------|--------------|--------------|--------------||---2-2-2-----||
D|--------------|--------------|-5----4----5--|--4----5----4-||-5-2-2-2-----||
A|--------------|--------------|-0----0----0--|--0----0----0-||-0-0-0-0-----||
E|--------------|--------------|--------------|--------------||-------------||

Pattern 2
young, Knows
D/A Dsus4/A D/A Dsus4/A D/A
e|--------------|--------------|--------------|--------------|----------------|
b|-2------------|------------3-|--------------|-3------------|-3--3--3--3----3|
g|-3------------|------------2-|--------------|-2------------|-2--2--2--2----2|
D|-4------------|------------5-|--------------|-4------------|-5--5--5--5----4|
A|-0------------|------------0-|--------------|-0------------|-0--0--0--0----0|
E|--------------|--------------|--------------|--------------|----------------|
E E A E G5 end Pattern 1
e|--------------|--------------|------------3-|--------------|----------------|
b|-0--------0--2|--------------|-0----------3-|--------------|----------------|
g|-1--------1--2|--------------|-1----------0-|--------------|----------------|
D|-2--------2--2|--------------|-2----------0-|--------------|----------------|
A|-2--------2--0|--------------|-2------------|--------------|----------------|
E|-0--------0---|--------------|-0----------3-|--------------|----------------|

Pattern 3

e|----------------------------------------------------------------------------|
b|-------------------------------------------------------2--2--2--------------|
g|-------------------------------------------------------2--2--2--------------|
D|-5--------4--------5--------4--------5--------4-----5--2--2--2--------------|
A|-0--0--0--0--0--0--0--0--0--0--0--0--0--0--0--0--0--0--0--0--0--0--0--0--0--|
E|----------------------------------------------------------------------------|
end Pattern 3
e|--------------------------|
b|----2--2--2---------------|
g|----2--2--2---------------|
D|-5--2--2--2---------------|
A|-0--0--0--0--0--0--0--0---|
E|--------------------------|
Solo:w/Pattern 3

~~~~~~~~~~~~~~~~~~~~~~~~~~~~~~~~~~~~ ~~
e|----------------------------------------------------------------------------|
b|-----------------------------------------------------------------5----------|
g|-----2--2--2--2--2--2--2--2--2--2--2--2--2-----------------------5----------|
D|----------------------------------------------x-----7--7--7--7---5-----7---7|
A|----------------------------------------------x---0--0--0--0--------------|
E|----------------------------------------------x--------------------------|
b b b ~~~~~~~~~
e|-------------------------------------------5--------------------------------|
b|---------------------------------------------8--5---5-----------------------|
g|---------------7-9-7---7-9-7-------7-9--7---------7---5---7--5--------------|
D|---------0-5-7-------------------7----------------------7-------7----------|
A|---0-5-7-------------------------------------------------------------------|
E|----------------------------------------------------------------------------|
b hb ~~~~~~
e|----------------------------------------------------------------------------|
b|8-10--10--10--10--10--10--10-----------------10--10------10--10------10--10-|
g|-----------------------------------2--2---0---------7-11--------9-11--------|
D|-----------------------------------2--2---0---------------------------------|
A|----------------------------------------------------------------------------|
E|----------------------------------------------------------------------------|
b b b ~~~~~~~ b b hb r
e|----------------------------------------------------------------------------|
b|-12-14-----12-14-----13-15------13--10------------15-17-----15-17----17---17|
g|---------------------------------------------------------------------------|
D|----------------------------------------------------------------------------|
A|----------------------------------------------------------------------------|
E|----------------------------------------------------------------------------|
hb b b
e|-------------------15--------15---------------------------------------------|
b|-15-13----15-17--------15-17-------15-17-----17--17--17--17---------15-17---|
g|----------------------------------------------------------------------------|
D|----------------------------------------------------------------------------|
A|----------------------------------------------------------------------------|
E|----------------------------------------------------------------------------|
b b b b b hb
e|-15--------------15-17------15-17---17------------15-17-----15-17----17----|
b|-----15-17-----------------------------------------------------------------|
g|----------------------------------------------------------------------------|
D|----------------------------------------------------------------------------|
A|----------------------------------------------------------------------------|
E|----------------------------------------------------------------------------|

End with:

e|--------------------|
b|-2--2--2--2---------|
g|-2--2--2--2---------| 4 Times !
D|-2--2--2--2---------|
A|-0--0--0--0---------|
E|--------------------|

Rock on!

-krak