Ac Dc — House Of Jazz

House Of Jazz by AC/DC
tabbed by Dave

Intro

Part 1
Main Ending A Ending B Ending C Ending D
|--------|---------|---------|--0---0--|------3---------------0--|
|-0-2----|---------|---------|--0---0--|------3---2-----------0--|
|-0-2-320|---------|---------|---------|------0---2---320-----1--|
|--------|---------|--2---2--|---------|------0---2-----------2--|
|--------|---------|---------|---------|----------0-----------2--|
|--------|0-0-0-0-0|0---0---0|0---0---0|0-0-0-3-----------0-0-0--|

Part 2

|-------------0---------------------------------------------|
|-0-2---------0---------------------------------------------|
|-0-2-320-----1---------------------------------------------|
|-------------2---------------------------------------------|
|-------------2---------------------------------------------|
|---------0-0-0---------------------------------------------|

Part 3

|-----------------------------------------------------------|
|-0-2-------------------------------------------------------|
|-0-2-320---------------------------------------------------|
|-----------------------------------------------------------|
|-----------------------------------------------------------|
|---------0-0-0---------------------------------------------|


Part 4

|-3-3-3-3-3-3-3-3-------------------------------------------|
|-3-3-3-3-3-3-3-3---2-2-2-2-2-2-2-2-------------------------|
|-0-0-0-0-0-0-0-0---2-2-2-2-2-2-2-2-------------------------|
|-0-0-0-0-0-0-0-0---2-2-2-2-2-2-2-2-------------------------|
|-------------------0-0-0-0-0-0-0-0-------------------------|
|-3-3-3-3-3-3-3-3-------------------------------------------|

|___________| |_____________|
Slightly mutted Start mutted but build up

Chorus

Part 5

|-----------------------------------3-3-3-3-3-3-3-3---------|
|------------------2-2-2-2-2-2-2-2--3-3-3-3-3-3-3-3---------|
|-1-1-1-1-1-1-1-1--2-2-2-2-2-2-2-2--0-0-0-0-0-0-0-0---------|
|-2-2-2-2-2-2-2-2--2-2-2-2-2-2-2-2--0-0-0-0-0-0-0-0---------|
|-2-2-2-2-2-2-2-2--0-0-0-0-0-0-0-0--------------------------|
|-0-0-0-0-0-0-0-0-------------------3-3-3-3-3-3-3-3---------|

Ending A Ending B

|-0-0-0-0-0-0-0-0-|-----------------------------------------|
|-3-3-3-3-3-3-3-3-|-----------------------------------------|
|-2-2-2-2-2-2-2-2-|-4-4-4-4-4-4-4-4-------------------------|
|-----------------|-4-4-4-4-4-4-4-4-------------------------|
|-----------------|-2-2-2-2-2-2-2-2-------------------------|
|-----------------|-----------------------------------------|


Play the parts

1a 1b 1c 1d 2 2 3 3 3 2 3 3 3 2 3 3 3 2 3 2 4 5a 5 b 2 and so on