Ac Dc — Lets Make It

-----------------------------------------------------------------------------
LETS MAKE IT - AC/DC
-----------------------------------------------------------------------------

Tabbed by: Ricky Privette
Email: creek582002@yahoo.com

Tuning: Standard

INTRO:
E|---------------3-----------------------------------------------|
B|------1-2-1----3--0-1-0----3--------------2-3-2----------------|
G|---------------0-----------2-----------2--------------1-2-1----|
D|--2------------0-----------0--4-5-4----2-----------2-----------|
A|--2------------2-----------------------0-----------2-----------|
E|--0------------3-----------------------------------0-----------|

Let ring out. Ply this chord 8 x's
E|-------------------------|----------------------------|--------|
B|-----0-1-0----3----------|-10-------------------------|--------|
G|--0-----------2----------|-9--------------------------|---2----|
D|--0-----------0--4-5-4---|-7--------------------------|---2----|
A|-------------------------|-0--------------------------|---0----|
E|--3----------------------|----------------------------|--------|

VERSE:
E|---------------------------------------------------------------|
B|---------------------------------------------------------------|
G|--5-------------------------------5-------------------5--------|
D|--5--------3--------5-------3-----5----3---5----3-----5----5---|
A|--3--------3--------5-------3-----3----3---5----3-----3----5---|
E|-----------1--------3-------1----------1---3----1----------3---|


BRIDGE:
E|-------------------------------------------------------|
B|-------------------------------------------------------|
G|--5-------------5-------------5--------------5---------|
D|--5----3---5----5----3---5----5----3---5-----5-----5---|
A|--3----3---5----3----3---5----3----3---5-----3-----5---|
E|-------1---3---------1---3---------1---3-----------3---|


CHROUS:
E|--2-----3---------------|
B|--3-----3---------------|
G|--2-----0---2---2-2-----|
D|--0-----0---2---2-2-----|
A|--------2---0---0-0-----|
E|--------3---------------|


SOLO:
E|----------------------------------------------------------------7-------|
B|--10----------------------------------------------------------7----10-7-|
G|--9^-----------7p5~~~~~~~~----7^----------------------------9-----------|
D|---------------------------------------5--5--7hb--7--7--9---------------|
A|------------------------------------------------------------------------|
E|------------------------------------------------------------------------|


E|---------------------------------------------------------------13^---12-|
B|-------------------------------------------------------12--15-----------|
G|-9^rp7-----7~~~~~~~~15^---15^---15^---15-12~~~~~~~~--------------------|
D|-------9----------------------------------------------------------------|
A|------------------------------------------------------------------------|
E|------------------------------------------------------------------------|


E|-------15^--13--12------------------------|
B|-12-----------------15--12--15^--12------|
G|------------------------------------------|
D|------------------------------------------|
A|------------------------------------------|
E|------------------------------------------|


THE SONG GOES LIKE THIS:
INTRO: 1 time
VERSE: 2 times
BRIDGE: 1 time
CHROUS: 8 times
VERSE: 1 time
BRIDGE: 1 time
CHROUS: 8 times
INTRO: 1 time
SOLO: 1 time
CHROUS: 8 times
INTRO: 1 time
CHROUS: Till END

|h - Hammer-ON
|P - Pull-Off
| - Slide Down
|^ - Bend (FULL)
|hb - Half Bend


=============================================================================