Ac Dc — Meltdown

Artist: AC DC
Song: Meltdown
Tabbed by: John leadman


Intro:

E|-------------------|-----------------------|-------------------|-----------------------|
B|-------------------|-----------------------|-------------------|-----------------------|
G|-------------------|-----9--7----6--9------|-------------------|-----9--7----6--9------|
D|----------------5/-|--6--7--9----7--7------|-------------------|-----7--9----7--7------|
A|-------------------|-----------------------|----------------5/-|--7--------------------|
E|-------------------|-----------------------|----------------0--|--0--------------------|

Both guitars:
|-------------------|------------------------|------------------------|
|-------------------|------------------------|------------------------|
|-------------------|-----9--7----6--9-------|-----9--7----6--9-------|
|-------------------|-----7--9----7--7-------|-----7--9----7--7-------|
|----------------5/-|--7------------------5/-|--7------------------5/-|
|----------------0--|--0------------------0--|--0------------------0--|

|-------------------|------------------------|------------------------|
|-------------------|------------------------|------------------------|
|-------------------|-------------2--2-------|-------------2--2-------|
|-------------------|--2--2-------2--2-------|--2--2-------2--2-------|
|----------------0--|--2--2--5----0--0----0--|--2--2--5----0--0----0--|
|-------------------|--0--0------------------|--0--0------------------|

Angus to verse: !!!
|------------------------|
|------------------------|
|-----9--7----6--9-------|
|-----7--9----7--7----5/-|
|--7---------------------|
|--0---------------------|

Verse:

|------------------------|------------------------|------------------------|
|------------------------|------------------------|------------------------|
|-----9--7----6--9-------|-----9--7----6--9-------|-----9--7----6--9-------|
|--6--7--9----7--7----5/-|--6--7--9----7--7----5/-|--6--7--9----7--7----5/-|
|------------------------|------------------------|------------------------|
|------------------------|------------------------|------------------------|

|------------------------|------------------------|------------------------|
|------------------------|------------------------|------------------------|
|------------------------|------------------------|------------------------|
|-------------2--2-------|-------------2--2-------|-------------2--2-------|
|--2--2--5----0--0----0--|--2--2--5----0--0----0--|--2--2--5----0--0----0--|
|--0--0------------------|--0--0------------------|--0--0------------------|

Bridge to chorus:

man it's getting hot hot
|------------------------|------------------------|
|---------------------7~-|---------------------7~-|
|-----9--7----6--9----7~-|------0--2--0--2--0--7~-|
|--6--7--9----7--7-------|------0--2--0--2--0-----|
|------------------------|------------------------|
|------------------------|------------------------|

|------------------------|------------------------|
|------------------------|------------------------|
|---------------------7~-|------0--2--0--2--0--7~-|
|-------------2--2----7~-|------0--2--0--2--0--7~-|
|--2--2--5----0--0-------|------------------------|
|--0--0------------------|------------------------|

hot I say man it's getting hot hot hot it's getting hotter
|------------------------|------------------------|------------------------|
|---------------------7~-|---------------------7~-|---------------------7~-|
|------0--2--0--2--0--7~-|------0--2--0--2--0--7~-|------0--2--0--2--0--7~-|
|------0--2--0--2--0-----|------0--2--0--2--0-----|------0--2--0--2--0-----|
|------------------------|------------------------|------------------------|
|------------------------|------------------------|------------------------|

|------------------------|------------------------|------------------------|
|------------------------|------------------------|------------------------|
|------0--2--0--2--0--7~-|------0--2--0--2--0--7~-|------0--2--0--2--0--7~-|
|------0--2--0--2--0--7~-|------0--2--0--2--0--7~-|------0--2--0--2--0--7~-|
|------------------------|------------------------|------------------------|
|------------------------|------------------------|------------------------|

and hotter man it's getting hot hot
|------------------------|------------------------|------------------------|
|---------------------7~-|---------------------7~-|---------------------7~-|
|------0--2--0--2--0--7~-|------0--2--0--2--0--7~-|------0--2--0--2--0--7~-|
|------0--2--0--2--0-----|------0--2--0--2--0-----|------0--2--0--2--0-----|
|------------------------|------------------------|------------------------|
|------------------------|------------------------|------------------------|

|------------------------|------------------------|------------------------|
|------------------------|------------------------|------------------------|
|------0--2--0--2--0--7~-|------0--2--0--2--0--7~-|------0--2--0--2--0--7~-|
|------0--2--0--2--0--7~-|------0--2--0--2--0--7~-|------0--2--0--2--0--7~-|
|------------------------|------------------------|------------------------|
|------------------------|------------------------|------------------------|

getting hotter round here
|-----------------------|--------------------------------------|
|-----------------------|--------------------------------------|
|------0--2--0--2--0----|--2--2--2--2--2--2--2--2--2--2--2--2--|
|------0--2--0--2--0----|--2--2--2--2--2--2--2--2--2--2--2--2--|
|-----------------------|--0--0--0--0--0--0--0--0--0--0--0--0--|
|-----------------------|--------------------------------------|

|-----------------------|--------------------------------------|
|-----------------------|--------------------------------------|
|------0--2--0--2--0----|--2--------2--------2--------2--------|
|------0--2--0--2--0----|--2--------2--------2--------2--------|
|-----------------------|--0--------0--------0--------0--------|
|-----------------------|--------------------------------------|

Chorus:

it's a meltdown
|-----------------------------------|------------------------|
|-----------------------------------|------------------------|
|--2--2--2--2--2--2--2--2--2--2--2--|-----9--7----6--9-------|
|--2--2--2--2--2--2--2--2--2--2--2--|-----7--9----7--7-------|
|--0--0--0--0--0--0--0--0--0--0--0--|--7------------------5/-|
|-----------------------------------|--0------------------0--|
| | |
|-----------------------------------|------------------------|
|-----------------------------------|------------------------|
|--2--------2--------2--------2-----|-------------2--2-------|
|--2--------2--------2--------2-----|--2--2-------2--2-------|
|--0--------0--------0--------0-----|--2--2--5----0--0----0--|
|-----------------------------------|--0--0------------------|


it's a meltdown 2nd verse:
|------------------------|------------------------|------------------------|
|------------------------|------------------------|------------------------|
|-----9--7----6--9-------|-----9--7----6--9-------|-----9--7----6--9-------|
|-----7--9----7--7-------|-----7--9----7--7-------|-----7--9----7--7----5/-|
|--7------------------5/-|--7------------------5/-|--7---------------------|
|--0------------------0--|--0------------------0--|--0---------------------|
| | | |
|------------------------|------------------------|------------------------|
|------------------------|------------------------|------------------------|
|-------------2--2-------|-------------2--2-------|-------------2--2-------|
|--2--2-------2--2-------|--2--2-------2--2-------|--2--2-------2--2-------|
|--2--2--5----0--0----0--|--2--2--5----0--0----0--|--2--2--5----0--0----0--|
|--0--0------------------|--0--0------------------|--0--0------------------|

Malcolm chord change during solo:
|------------------------|------------------------|
|------------------------|-------------3--3-------|
|-------------2--2-------|--2--2-------2--2-------|
|--2--2-------2--2-------|--2--2--5----0--0----0--|
|--2--2--5----0--0----0--|--0--0------------------|
|--0--0------------------|------------------------|

|------------------------|------------------------|
|-------------3--3-------|------------------------|
|--2--2-------2--2-------|-------------2--2-------|
|--2--2--5----0--0----0--|--2--2-------2--2-------|
|--0--0------------------|--2--2--5----0--0----0--|
|------------------------|--0--0------------------|