Ac Dc — Mistress For Christmas

MISTRESS FOR CHRISTMAS
THE RAZOR'S EDGE - AC/DC



D A D D A G5 D D A
|-2-------------2--|-2---------------|-3-------2-------|-2------------------|
|-3---2---------3--|-3---2-----------|-3-------3-------|-3-------2----------|
|-2---2---------2--|-2---2-----------|-0-------2-------|-2-------2----------|
|-0---2---------0--|-0---2-----------|-0-------0-------|-0-------2----------|
|-0---0---------0--|-0---0-----------|---------0-------|-0-------0----------|
|------------------|-----------------|-3---------------|--------------------|
Jingle bells, Jingle bells jingle all the day

D A D D A G5 D D A
|------------------|----------------5|-----------------|--------------------|
|------------------|--------------5--|-8-5-------------|--------------------|
|------------------|--------5-7^9----|-----7-5-7---5---7/87-5--------------|
|------------------|------7----------|---------------7-|------------5h7-----|
|------------------|-----------------|-----------------|-----------7--------|
|------------------|-----------------|-----------------|--------------------|
I just can't wait till X-mas time when I'll be rollin' in the hay

D A D D A G5 D D A
Easy come Easy go Have a good time with lots of dough
Slipping up high Slippin' down low Love'em and leave 'em on with the show

D A D D A G5 D D A
|------------------|-----------------|-----------------|---------8^10v8-5---|
|------------------|-----------------|-----------------|--------------------|
|------------------|-----------------|-----------------|--------------------|
|------------------|------5---5------|-5-^^^^7---------|-5---------------|
|------------------|-----------------|-----------------|--------------------|
|------------------|-----------------|-----------------|--------------------|
Ah ah ah , yeah all right

D A D D A G5 D D A
|------------------|-----------------|-----------------|--------------------|
|-8^10----8-5------|-----------------|-----------------|--------------------|
|-------------97~~|-7^9v7-5~~~~-----|-5---------------|--------------------|
|------------------|-----------------|---7--5--5-------|-7------------------|
|------------------|-----------------|-----------------|--------------------|
|------------------|-----------------|-----------------|--------------------|
Listen, I like

D A D D A G5 D D A
female form in mimimum dress Money to spend with a capital 'S'
Get a date with a woman in red Wanna be in heaven with three in a bed

D A G5 D D A G5 D
|------------------|-----------------|-----------------|--------------------|
|------------------|-----------------|-----------------|--------------------|
|-2~~~~~~~~~~~~~~--|--------7^9-7-5--|-7^9~~~~~~~~-----|--------------------|
|------------------|-----------------|-----------------|--------------------|
|------------------|-----------------|-----------------|--------------------|
|------------------|-----------------|-----------------|--------------------|
He got it I want it They got it I can't have it

D A G5 D D A G5 D
|------------------|-----------------|-------------------|--15-------15----15|
|------------------|-----------------|-15^17-15^17--15^17|-----15^17----15^17|
|-14~~~~~~~~~~~~~--|-----------------|-------------------|-------------------|
|------------------|-----------------|-------------------|-------------------|
|------------------|-----------------|-------------------|-------------------|
|------------------|-----------------|-------------------|-------------------|
But I want it, but it don't matter She got it I can't get it

G5 D G5 D
|------------------------------------|--------------------------------------|
|------------------------------------|--------------------------------------|
|-7-8v7-7-8v7--5-7-8v7-7-8v7-5-7-8v7-|--7-8v7---------5---------------------|
|------------------------------------|---------------------7----------------|
|------------------------------------|--------------------------------------|
|------------------------------------|--------------------------------------|
I wanna

D A D D A G D D A
|------------------|------------5----|-----------------|--------------------|
|------------------|----------5------|-8^10---8-5------|--------------------|
|------------------|------7^9--------|-----------8-7-5-|--------------------|
|------------------|-----------------|-----------------|-5-----------7------|
|------------------|-----------------|-----------------|--------------------|
|------------------|-----------------|-----------------|--------------------|
mistress for Christmas I wanna

D A D D A G D D A
|------------------|---------------|-------------------------|--------------|
|------------------|--------13--10-|12^13vv12^13v12-10-12^13-|v12-10-10-10--|
|------------------|------14--14---|-------------------------|--------------|
|------------------|---------------|-------------------------|--------------|
|------------------|---------------|-------------------------|--------------|
|------------------|---------------|-------------------------|--------------|
mistress for Christmas Ah, yeah

E5 B5 A5 E5 B5 A5 E5
|------------------|-----------------|-----------------|--------------------|
|--(second guitar play 9 and hold vibrato throughout 7 bars)----------------|
|--------4---------|-2---------------|-----4-----------|-2------------------|
|-2(9~~~)4(~~~~~~~)|-2(~~~~)2(~~~~~~)|(~~~)4(~~~~~~~~~)|-2(~~~~~)2(~~~~~~~~)|
|-2------2---------|-0------2--------|-----2-----------|-0-------2----------|
|-0----------------|--------0--------|-----------------|---------0----------|
Ha,ha yeah I wanna

E5 B5 A5 E5 B5 A5 E5
|------------------|-----------------|-------------|------------------------|
|------------------|-----------------|-------------|------------------------|
|------------------|-----------------|-------------|-9^11v9-7-9^11v9-7-9^11-|
|-~~~~~~~~~~~~~~~~-|-~~~~~~~~~~~~~~~-|-~~~~~~~~~~~~|------------------------|
|------------------|-----------------|-------------|------------------------|
|------------------|-----------------|-------------|------------------------|
mistress for Christmas Come on !

[guitar solo]
B5 A5 E5 B5
|-----------------------|-------------------------|-----------7--------------|
|-----------------------|-------------------------|--------------------------|
|-9^11--~~~~~~----------|---9^11--v9-7-9^11v9-----|7---7-9-10---10-9-7-----7-|
|----------------7-|-0-----------------------|--9-----------------9-9---|
|-----------------------|-------------------------|--------------------------|
|-----------------------|-------------------------|--------------------------|

A5 E5 B5 A5 E5
|-----------------------|-------10-----10^11-------------|-------------------|
|-----------------------|----12-----12--------12-10------|--------------17^19|
|----------------2/////-|-11------------------------11-10|-9-7-9-7^9---------|
|-9--7------------------|--------------------------------|-----------9-------|
|-----------------------|--------------------------------|-------------------|
|-----------------------|--------------------------------|-------------------|

B5 A5 E5
|-----------------------|----17-----17-----17-----|
|---17-15-----------17^-|-19-----17^19--17^19-----|
|---------16-16~~~~-----|-------------------------|
|-----------------------|-------------------------|
|-----------------------|-------------------------|
|-----------------------|-------------------------|

G5 D A G5 D A
|------------------|-----------------|-5----------------|-------------------|
|------------------|-----------------|---8-5------------|-------------------|
|------------------|---------7^9-----|-------8-7-5-7-7-5|~~~~~--------------|
|------------------|-----------------|------------------|-------------------|
|------------------|-----------------|------------------|-------------------|
|------------------|-----------------|------------------|-------------------|
Easy come, Easy go

G5 D A G5 D A
|------------------|---------15^17---|-15^17-15^17--15^17v15--15^17-15^17---|
|------------------|-----------------|-----------------|--------------------|
|------------------|-----------------|-----------------|--------------------|
|------------------|-----------------|-----------------|--------------------|
|------------------|-----------------|-----------------|--------------------|
|------------------|-----------------|-----------------|--------------------|
Slippin' high Slipping low yeah Allright,

D A G5 D D A G5 D
He got it I want it They got it I can't have it
I want it don't have She got it and I can't get it
(mistress)He got it I want it(X-mas)They got it and I can't have it
(mistress)I want it it don't have it She got it knock 'em down

D A D A G5 G D
(mistress) (for Christmas)

D A D A G5 DD G5 D
(mistress) (for X-mas) You got to send them down You got to send them down
(mistress) (for X-mas) I want the woman in the rear with a bottle of my beer
(mistress) (for X-mas)

G5 D
|---------------------------------------------------------------------------|
|-8^10-8-7-5h7p5------------------------------------------------------------|
|----------------8-7-5---7-5-7-7^9------------------------------------------|
|----------------------7----------------------------------------------------|
|---------------------------------------------------------------------------|
|---------------------------------------------------------------------------|
I can hear you coming down that snowstack,yeah


D A
|------------------------------------------------------|--------------------|
|-8^10(10)-8-7-5h7p5-----------------------------------|--------------------|
|--------------------8p7p5---7-5-----------------------|--------2-----------|
|--------------------------7-----7--5------------------|--------2-----------|
|-------------------------------------7-6-5-3-5-3h4----|--------0-----------|
|------------------------------------------------------|--------------------|
I wanna ride on your reindeer honey and ring your bells yeah


-=-=-=-=-=-=-=-=-=-=-=-=-=-=-=-=-=-=-=-=-=-=-=-=-=-=-=-=-=-=-=-=-=-=-=-=-=-=-
^ : bend h : hammer on
v : release p : pull off
/ : slide up ~ : vibrato
: slide down () : hold bend and pick again