Ac Dc — Problem Child

Artisit:ac/dc
Guitarists:Angus Young and Malcome Young
Album:Let there be rock/if you want blood/Dirty Deeds
tabbed by: smellslikefeet1
Tunning:standard

these are the only cords through the song malcome jsut mixes 'em up a bit
im pretty sure this is close to 100% right

D A G E

|--2----| |---0---| |---2---| |-------|
|--3----| |---2---| |---2---| |-------|
|--2----| |---2---| |---0---| |---1---|
|--0----| |---2---| |---0---| |---2---|
|-------| |---0---| |---2---| |---2---|
|-------| |-------| |---3---| |---0---|

Verse1
Im hott and when im not...
D A D G
|---2--0--2--2----|
|---3--2--3--2----|
|---2--2--2--0----| repeat through verse till pre chorus
|---0--2--0--0----|
|------0-----2----|
|------------3----|


pre chorus
What i want i take...
A D A E
|---0--2------0------------------------------------|
|---2--3------2------------------------------------|
|---2--2-x4---2--1---------------------------------|
|---2--0------2--2---------------------------------|
|---0---------0--2--x4-----------------------------|
|----------------0---------------------------------|

Chorus
A E A D E A D A E A D E A E
|---0-----0--2-----0--2-----|--0-----0--2-----0------------------|
|---2-----2--3-----2--3-----|--2-----2--3-----2------------------|
|---2--1--2--2--1--2--2-----|--2--1--2--2--1--2--1---------------|
|---2--2--2--0--2--2--0-----|--2--2--2--0--2--2--2---------------|
|---0--2--0-----2--0--------|--0--2--0-----2--0--2---------------|
|------0--------0-----------|-----0--------0-----0---------------|

Malcome plays this through solo1
E A E
|----0------|
|----2------|
|--1-2-1----|
|--2-2-2----|
|--2-0-2----|
|--0---0----|

maclome plays this through solo2

|--2-------|
|--2-------|
|--2-1-----|
|--2-2-----|
|--0-2-----|
|----0-----|


Line up:
verse
pre chorus
chorus
verse
pre chorus
chorus
solo1
verse
pre chorus
chorus
solo2
chorus

ENJOY!