Ac Dc — Ride On

RIDE ON  (AC/DC)
================

Chords:
C X32010
_C X3555X
F X33210
_F 133211
Bb X1333X
G 3X0033
_G 355433
(E) 0XXXXX

Intro: C F (4 times)

C F C F
It's another lonely evening
_F Bb _F Bb
In another lonely town
_G _C
But I aint to young to worry
Bb _F
And I aint to old to cry
C F C F
When a woman gets me down

Im lonely...
|-----------------------------------------------------------------------------|
|-----------------------------------------------------------------------------|
|-----------------------------------------------------------------------------|
|--------------------------------5--------------------------------------------|
|--------3~~--%---------4~~--%---5--------------------------------------------|
|--1-1-1----------2-2-2----------3-%-%-%-%-%-%-%-%-%-%-%-%--------------------|
.

F C F G F C Bb _F
Ride on Ride on Ride on Ride on

F C C G (E) _F
Ride on Ride on


Little solo
|----------------------15-----------------------------------------------------|
|-16b18-r16-13---16r15b17---15b17-13-15p13-13---------------------------------|
|-----------------------------------------------12r10--8~~~~~-----------------|
|-----------------------------------------------------------------------------|
|-----------------------------------------------------------------------------|
|-----------------------------------------------------------------------------|
. ~ . . ~

Main solo

|----------------------------------|
|-16b18-r16-13-13~------13-13b17--|
|---------------------/14----------|
|----------------------------------|
|----------------------------------|
|----------------------------------|
. .

|-------8--------------------------------------------------|
|---------11p8----8----------------------------------------|
|-10b12--------10---10b12r10p8---------10b12r10-8~~~~------|
|------------------------------10--------------------------|
|----------------------------------------------------------|
|----------------------------------------------------------|
. ~
????????????????????

|-----------------------------------------------------------------------------|
|------8----------8-11p8-------8-11p8------8-11b13----------------------------|
|--10b12-----10b12-------10b12--------10b12-----------------------------------|
|-----------------------------------------------------------------------------|
|-----------------------------------------------------------------------------|
|-----------------------------------------------------------------------------|

|--8-----------------------------------------8-10-11~~~~----------------------|
|----11p8----------------------------8-10-11----------------------------------|
|--------11p10p8----8~~~~-------8-10------------------------------------------|
|----------------10--------8/10-----------------------------------------------|
|-----------------------------------------------------------------------------|
|-----------------------------------------------------------------------------|
. .


|--10b12r10-8-h11p8-----8--8-8---15r17--17r15--13-12----12--------------------|
|-------------------/10------------------------------13---13~~~~-------------|
|-----------------------------------------------------------------------------|
|-----------------------------------------------------------------------------|
|-----------------------------------------------------------------------------|
|-----------------------------------------------------------------------------|
. .
????????????????????

|-------------------------------------------------15-------------18-18===----|
|-15b17--15b17-%-%-%-%--17r15-13-13---15-13-15/17----17----18b20----18b20-----|
|-----------------------------------------------------------------------------|
|-----------------------------------------------------------------------------|
|-----------------------------------------------------------------------------|
|-----------------------------------------------------------------------------|
. . ~
?????????????????

|--17-18-15---18p17p15--------------------------------------------------------|
|----------------------18p17p15-18p17p15--------------------------------------|
|-----------------------------------------17p15-15-17-15-17~~~~~-------------|
|-----------------------------------------------------------------------------|
|-----------------------------------------------------------------------------|
|-----------------------------------------------------------------------------|
. . .
????????????????????????????????????????????

|----------------------------------------------------------------|
|----------------------------8-11p8------------------------------|
|--8-------8-------8-?--------------10p8-10~~~~------------------|
|----10-10-----8h10 ---%-%---------------------------------------|
|----------------------------------------------------------------|
|----------------------------------------------------------------|
^ @ --------/
try fast stuff
with ? = 8 or 10
????????????????????????

|------8------------------------------------------------------------|
|-----8--11p8-------------------------------------------------------|
|---10--------10p8-8-10p8----8--------------------------------------|
|-------------------------10---10-10~~~~----------------------------|
|-------------------------------------------------------------------|
|-------------------------------------------------------------------|
. ^ .

|-------------------8-10-11r10-8~~~-|
|-----------8-10-11-----------------|
|------8-10-------------------------|
|--/10------------------------------|
|-----------------------------------|
|-----------------------------------|
.

|------13-----------13-----------------------------|
|---------16b18~~~-----16p13-----------------------|
|--/14-----------------------16p15p13--------------|
|-------------------------------------15~~~-------|
|--------------------------------------------------|
|--------------------------------------------------|

|------------------------------------------------------------|
|-----15-17b19---17-15-17b19-17b19--17b19-17b19~~~----------|
|--17--------------------------------------------------------|
|------------------------------------------------------------|
|------------------------------------------------------------|
|------------------------------------------------------------|
. .
?????????????????

|-----------------------------------------------------------------------------|
|--18b20--18b20-18b20--18p17p15-%%%%--18b20~~~~~~~~--------------------------|
|-----------------------------------------------------------------------------|
|-----------------------------------------------------------------------------|
|-----------------------------------------------------------------------------|
|-----------------------------------------------------------------------------|
.

Ending lick - well some of it
|--8-------------8----------------------------------------------------------|
|----8--11b13------11p8-----------------------------------------------------|
|------------------------(insert lots---------------------------------------|
|-------------------------------------of -----------------------------------|
|----------------------------------------notes here)------------------------|
|-------------------------------------------------------11--8~~~~~~--------|
^

b bend
r release
h hammer-on
p pull-off
^ slight-bend
~ vibrato
/ slides
. staccato
% repeat last lick
= hold note
@ semi-harmonic