Ac Dc — Rock N Roll Aint Noise Pollution

Rock and Roll Ain't Noise Pollution
AC/DC
Back In Black

There are two guitar parts in the intro.

Guitar 1 (only)
e------------------------------------|
B------------------------------------|
G-1-2-4--2-2-4-------1-2-4--2-2------|
D-2-4-0--4-4-0-------2-4-0--4-4------|
A------------------------------------|
E--------------3--0-------------3--0-|

e------------------------------------|
B------------------------------------|
G-1-2-4--2-2-4-------1-2-4--2-2------|
D-2-4-0--4-4-0-------2-4-0--4-4------|
A------------------------------------|
E--------------3--0-------------3--0-|

Guitar 1
e------------------------------------|
B------------------------------------|
G-1-2-4--2-2-4-------1-2-4--2-2------|
D-2-4-0--4-4-0-------2-4-0--4-4------|
A------------------------------------|
E--------------3--0-------------3--0-|

Guitar 2
e---------------------------------|
B-0-2-3-2-2-3------0-2-3-2-2------|
G-1-2-4-2-2-4------1-2-4-2-2------|
D---------------------------------|
A---------------------------------|
E-------------3--0-----------3--0-|

Then just repeat that a bunch of times.

Hope you like it.
Carson