Ac Dc — Rock Your Heart Out

AC/DC
Rock Your Heart Out

Hi,heres the bass tab for rock your heart out.
Opening and main riff.
------------------------------------------------------------------------------
----7--7--7--7--5----xx5------------------------------------------------------
----------------------5--------5----------------------------------------------
------------------------------------------------------------------------------
during the verse the riff drops a step.
------------------------------------------------------------------------------
------------------------------------------------------------------------------
----7--7--7--7--5----xx5------------------------------------------------------
----------------------5---------5---------------------------------------------
To get the song to sound right you have to play the notes quick and tight.>
Tabbed by B.J.Lisko
JLisko44@aol.com