Ac Dc — Rockin In The Parlour

-------------------------------------------------------------------------------
ROCKIN’ IN THE PARLOUR – AC/DC
-------------------------------------------------------------------------------

Tabbed by: PSEUDOANGUS
Email:
Tuning: STANDARD

Figure 1, Gtr 1
e|---------------------------------------------------------------------------|
B|---------------------------------------------------------------------------|
G|--7--7-----7-----5--5-----7-----7--7-----7-----5--5-----7------------------|
D|--0--0-----0-----0--0-----0-----0--0-----0-----0--0-----0------------------|
A|-------8-9---8-9------8-9---8-9------8-9---8-9------8-9---8-9--------------|
E|---------------------------------------------------------------------------|
Figure 1, Gtr 2
e|---------------------------------------------------------------------------|
B|---------------------------------------------------------------------------|
G|-------7---7----------5---7----------7---7----------5---7------------------|
D|-------7---7----------7---7----------7---7----------7---7------------------|
A|---------------------------------------------------------------------------|
E|---------------------------------------------------------------------------|
Figure 2a, Gtrs 1&2 |---gtr 1 only---------------|
e|---------------------------------------------------------------------------|
B|---------------------------------------------------------------------------|
G|---------------------------------7--7-----7-----7--7-----7-----------------|
D|---------------------------------0--0-----0-----0--0-----0-----------------|
A|-5--5-7-5-5-5-7-5--5-7-5-5-5-7--------8-9---8-9------8-9---8-9-------------|
E|-3--3-3-3-3-3-3-3--3-3-3-3-3-3---------------------------------------------|
Figure 2b, gtrs 1&2 Return to figure 1
e|-----------------------------------------------3---------------------------|
B|-----------------------------------------------3---------------------------|
G|-----------------------------------------------0---------------------------|
D|-----------------------------------------------0---------------------------|
A|-5--5-7-5-5-5-7-5--5-7-5-5-5-7-5----5-5-4-2--2-x---------------------------|
E|-3--3-3-3-3-3-3-3--3-3-3-3-3-3-3----3-3-2-0--0-3---------------------------|

| / slide up
| slide down
| h hammer-on
| p pull-off
| ~ vibrato
| + harmonic
| x Mute note
===============================================================================