Ac Dc — Satellite Blues

AC/DC - Satellite blues             
by Kurtis Martin
animan@sbcglobal.net


Main riff

E|------------------------------------------------------
B|-------------------x--3-3-x-3-x-----------------------
G|-0h2-2-0--0-2-2----2--2-2-2-2-2-----------------------
D|-0h2-2-0--0-2-2----2--x-x-2-x-2-----------------------
A|-0----------0-----------------0-----------------------
E|------------------------------------------------------

Chorus

E|------------------------------------------------------
B|-3----------------------------------------------------
G|-2----------------------------------------------------
D|-0----------------------------------------------------
A|------------------------------------------------------
E|------------------------------------------------------



E|------------------------------------------------------
B|----------------------------3-3-x-3-x----3-3-x-3-x----
G|-2-2-0--0-2-2--2-0-2-2----2-2-2-2-2-2--2-2-2-2-2-2----
D|-2-2-0--0-2-2--2-0-2-2----2-x-x-2-x-2--2-x-x-2-x-2----
A|-0-0-0--0-0----0-0-0------0------------0--------------
E|------------------------------------------------------

E|------------------------------------------------------
B|----------------------------3-3-x-3-x----8-8-x-8-x----
G|-2-2-0--0-2-2--2-0-2-2----2-2-2-2-2-2--7-7-7-7-7-7----
D|-2-2-0--0-2-2--2-0-2-2----2-x-x-2-x-2--7-x-x-7-x-7----
A|-0-0-0--0-0----0-0-0------0---------------------------
E|------------------------------------------------------


ENJOY!